PrimaNota.ru - самый крупный в мире бесплатный архив песенных текстов, аккордов, табулатур и нот


Pfr - Merry Go Round - таба, видео

Регистрация Запомнить меня
Войти через:  Facebook Google Twitter Vk Yandex Mail.ru

Pfr - Merry Go Round - таба, видео

Печатать
Просмотров: 169
Уроки эстрадного вокала в Санкт-Петербурге
		   Merry-Go-Round
Pfr
Great Lengths
E-mail me: Mike Jett    GuitarsnJesus@juno.com


Riff 1
E :-----------------------------------------|
B :-----------------------------------------|
G :12-12-12-12x---11-11--10-10-10-10-/-9--9-|
D :10-10-10-10xxx-10-10--10-10-10-10-/10-10-|
A :------------xx---------------------------|
E :-----------------------------------------|


Riff 2
E :-----------------------------------------
B :-----------------------------------------
G :---------------------------------9-------
D :---------12--------12----12----9---9-----
A :------10--------12----12-----7---------12
E :--/12--------10----------------------9---


E :----------------------------|
B :----------------------------|
G :------------9-------7-----5-|
D :-12-------9---9-----7-----5-|
A :----12--6-----------5-----3-|
E :----------------------------|


Riff 3
E :--------------------------
B :--------------------------
G :4--4-4--5-5-5--7-7-7-----9
D :4--4-4--5-5-5--7-7-7-----9
A :2--2-2--3-3-3--5-5-5-----7
E :--------------------------
p.m..........................
E :------------------|
B :------------------|
G :----7----5----4---|
D :----7----5----4---|
A :----5----3----2---|
E :------------------|
p.m...................


Solo (with riff 2)
E :------------------------------------------
B :------------------------------------------
G :------------------------------------------
D :----------12------10--12-^-~-~-12r--10--12
A :-------10-----/12-------------------------
E :---/12------------------------------------


E :-----------------------------------------
B :----------------------------------10--/12
G :-------10-12-^-~r--11r-10-11--/12--------
D :---/12-----------------------------------
A :-----------------------------------------
E :-----------------------------------------


E :-10-10^9-h10---|
B :---------------|
G :---------------|
D :---------------|
A :---------------|
E :---------------|     
Добавлено: 21.10.2013
Другие материалы по этой песне:
  • Аккорды и текст

Страница создана 21.10.2013
http://primanota.ru/pfr/merry-go-round-chords.htm
Привет, Гость.
Предлагаем пройти революционный курс по гитаре.
Подарок от PrimaNota.Ru, забирай!