PrimaNota.ru - самый крупный в мире бесплатный архив песенных текстов, аккордов, табулатур и нот


Pfr - Forever - аккорды и текст, таба, видео

Регистрация Запомнить меня
Войти через:  Facebook Google Twitter Vk Yandex Mail.ru

Pfr - Forever - аккорды и текст, таба, видео

Печатать
Просмотров: 122
Уроки эстрадного вокала в Санкт-Петербурге
Forever
Pfr
		   Forever
PFR
Late Great PFR
Gtr 1- electric standard tuning
Gtr 2- acoutic dgcfad tuning (whole step down)
Tabbed by Jed
jclgreat@juno.com
based on original work by Mel Baker
Skidrow102@aol.com


Intro
Gtr 1
  G                      Em                  Bm              C   - shape
 (F)                    (Dm)            (Am)                (Bb) - actual key   
-------------------------------------------------------------------------
-----
-------------------------------------------------------------------------
-----
-------------------------------------------------------------------------
-----
--3--3--3-3-3--3-2-0--0--0-0-2-3/8-7--------2--------3h5p3---------------
-----
-------------------------------------------------------------------------
-----
-------------------------------------------------------------------------
-----
Gtr 2 strums chords

Verse
Gtr 2 only-same as intro

Solo
-------------------------------------------------------------------------
-----
-------------------------------------------------------------------------
-----
-----------------------------9----12-------------------------------------
-----
-----------------------10-------------------7----10----/19--17-----------
-----
--8----10----12----------------------------------------------------------
-----
-------------------------------------------------------------------------
-----


-------------------------------------------------------------------------
-----
-------------------------------------------------------------------------
-----
-------------------------------------------------------------------------
-----
--15--15----11--11----10--10----8--8----3--------------------------------
-----
-------------------------------------------------------------------------
-----
-------------------------------------------------------------------------
-----



Gtr 2 chords
  G       Em    Bm    C     Cm    D     A  (chord shape)
  F     Dm        Am      Bb    Bbm   C     G  (actual sounding chord)  
--3-----0-----2-----3-----3-----2-----0----------------------------------
-----
--3-----0-----3-----5-----4-----3-----2----------------------------------
-----
--0-----0-----4-----5-----5-----2-----2----------------------------------
-----
--0-----2-----4-----5-----5-----0-----2----------------------------------
-----
--2-----2-----2-----3-----3-----------0----------------------------------
-----
--3-----0----------------------------------------------------------------
-----


Intro: F     Dm     Am     Bb

Verse: F     Dm     Am     Bb

Verse-Chorus Bridge: Dm     Bb     Am     C

Chorus: F     Am     Bb     Bbm     (Dm last time)

End Bridge: Dm     Am     C     G     F
     
Добавлено: 15.09.2013
Другие материалы по этой песне:
  • Аккорды и текст

Страница создана 12.08.2013
http://primanota.ru/pfr/forever-chords.htm
Привет, Гость.
Предлагаем пройти революционный курс по гитаре.
Подарок от PrimaNota.Ru, забирай!