PrimaNota.ru - самый крупный в мире бесплатный архив песенных текстов, аккордов, табулатур и нот


Pfm - Maestro Della Voce - аккорды и текст, видео

Регистрация Запомнить меня
Войти через:  Facebook Google Twitter Vk Yandex Mail.ru

Pfm - Maestro Della Voce - аккорды и текст, видео

Печатать
Просмотров: 87
Maestro Della Voce
Pfm
		   --------
Se ti può bastare !!!  non sono un professionista come tanti in lista!!!

Ciao Loreno Bz.


Maestro della Voce          P.F.M.

--------------------------------  Intro basso da solo due giri poi entra
chitarra 2 x
--------------------------------  entra batteria 2x e poi voce
-7---------------7------7---ecc.  chitarra bending sul -7-
9-99--7----7---79-99--79--------
----79-9979-9979----79----------  all'(*) entra tastiera
--------------------------------

  Bm         Fa#-                                         Bm
Uno come me, scarpe bianche come me, abitava le ringhiere a nord della
città,

cantava come un matto, di notte e di giorno, viveva la sua estate anche
d'inverno
       (*)
Di giorno e di notte io per campare parlo di stelle, di donne, e ho cazoni
da imparare

in giro per Milano, sotto un cielo sempre nero, occhi chiari ed
un'espressione da guerriero

--10--------------------------
12--12-7-10--7--7-10-7--------  chit. x 2
--------------9--------9-7----
------------------------------

Con le nostre facce stanche, un mattino, ci trova insieme a camminare

parli con me ore ed ore , non nascondi le paure

E                  Fa#-         Bm
Maestro della voce, solo una canzone
E                     A                    Bm      E
maestro della voce per cantare dammi una canzone

----57-------5------  x4  tab(**)
-777--5-575-7-75----
----------------7---
--------------------

-7-10-7-----------5-----  con il cantato 2x
-------7-10--75-7--75---
---------------------7--
------------------------

Uno come me, scarpe bianche come me   canta semprte per la gente

quante volte ci ho provato, quante volte ci proverò a far cantare le mie
mani

------------10-12-14-12-10-14-12-10-12------14-12---------------------------
-------
---------------------------------------14-10-----14-12-10-
12-14-14/5-14/5-12-10-12
--------9-11----------------------------------------------------------------
-------
----9-12--------------------------------------------------------------------
-------
9-12------------------------------------------------------------------------
-------
----------------------------------------------------------------------------
-------


-19-17-19-10--10-14-12-10-12-------14-12------------------------------------
-------
-----------12---------------14-10-------14-12-10-12-14-14/5-14/5-12-10-12---
-------
----------------------------------------------------------------------------
-------

E                   Fa#-                 Bm
maestro della voce per cantare dammi una canzone

E                   Am                 Bm      E
maestro della voce per cantare dammi una canzone

dammi una tua canzone...       rifare tab (**)  4x1  2x2  2x1 2x2





     
Добавлено: 02.08.2013
Другие материалы по этой песне:

Страница создана 01.04.2012
http://primanota.ru/pfm/maestro-della-voce-chords.htm
Привет, Гость.
Предлагаем пройти революционный курс по гитаре.
Подарок от PrimaNota.Ru, забирай!