PrimaNota.ru - самый крупный в мире бесплатный архив песенных текстов, аккордов, табулатур и нот


Pfm - La Carrozza Di Hans - таба, видео

Регистрация Запомнить меня
Войти через:  Facebook Google Twitter Vk Yandex Mail.ru

Pfm - La Carrozza Di Hans - таба, видео

Печатать
Просмотров: 68
		   LA CARROZZA DI HANS  -  Premiata Forneria Marconi 
Testo di Mauro Pagani - Musica di Franco Mussida
dall'album STORIA DI UN MINUTO - 1972
   

Tabbed by Giuliano - http://tablature.too.it
                     http://tablature.host.sk
____________________________________________________________________________


                                         E||--------------------------|
                                         B||--------------------------|
                                         G||--------------------------|
Guarda, cerca, corri lontano, vola....   D||--8----9----10--9---------|
                                         A||--6----7----8---7--9--10--|
                                         E||-------------------7--8---|



  HANS IL MERCANTE      ASPETTA LONTANO
    Am       Bm         C       D         
E||--0--------2--------|--0--------2--------|
B||--1--------3--------|--1--------3--------|
G||--2--------4--------|--0--------2--------|
D||--2--------4--------|--2--------0--------|
A||--0-----------------|--3-----------------|
E||--------------------|--------------------|

 VO   -    LA                                    PICCOLO   UOMO   SI-
 D#       E                                     Am     Bm        
--3--------4--------|--------------------------|--0--------2--------|
--4--------5--------|--------------------------|--1--------3--------|
--3--------4--------|--------------------------|--2--------4--------|
--------------------|--8----9----10--9---------|--2--------4--------|
--------------------|--6----7----8---7--9--10--|-----------2--------|
--------------------|-------------------7--8---|--------------------|

 GNORE DEL MONDO      VAI..... 
  C       D         E7                   Am7                         
--0--------2--------|--0----------------||------------0-----------------|
--1--------3--------|--3----------------||---------1-----1--------1-----|
--0--------2--------|--1----------------||*-----0-----------0--------0--|
--2--------0--------|--2----------------||*--------------------2--------|
--3-----------------|--2----------------||---0--------------------------|
--------------------|-------------------||------------------------------|


 C9                            F                           
-----------------0-----------|-----------------1-----------|
-----------3--------3--------|-----------1--------1--------|
--------3-----3--------3-----|--------2-----2--------2-----|
-----2--------------------2--|-----3--------------------3--|
--3-----------------3--------|-----------------------------|
-----------------------------|--1--------------------------|

                                  LA CARROZZA ATTENDE GIA'
 Mim7/9#                                                          
-----------------3------------||------------0-----------------|
-----------3--------3---------||---------1-----1--------1-----|
--------4-----4--------4-----*||*-----0-----------0--------0--|
-----2--------------------2--*||*--------------------2--------|
------------------------------||---0--------------------------|
--0---------------------------||------------------------------|

                               NON    TI     FER - 
                                                            
-----------------0-----------|-----------------1-----------|
-----------3--------3--------|-----------1--------1--------|
--------3-----3--------3-----|--------2-----2--------2-----|
-----2--------------------2--|-----3--------------------3--|
--3-----------------3--------|-----------------------------|
-----------------------------|--1--------------------------|

 MARE,                            A CASSETTA SALI E VA
                                                            
-----------------3-----------|-----------0-----------------|
-----------3--------3--------|--------1-----1--------1-----|
--------4-----4--------4-----|-----0-----------0--------0--|
-----2--------------------2--|--------------------2--------|
-----------------------------|--0--------------------------|
--0--------------------------|-----------------------------|


                               NON      TI         VOL-                             
-----------------0-----------|-----------------1-----------|
-----------3--------3--------|-----------1--------1--------|
--------3-----3--------3-----|--------2-----2--------2-----|
-----2--------------------2--|-----3--------------------3--|
--3-----------------3--------|-----------------------------|
-----------------------------|--1--------------------------|

TARE,                 SUO-     NA   UN   CORNO   DA   COCm
-----------------3-----------|-----------0-----------------|
-----------3--------3--------|--------1-----1--------1-----|
--------4-----4--------4-----|-----0-----------0--------0--|
-----2--------------------2--|--------------------2--------|
-----------------------------|--0--------------------------|
--0--------------------------|-----------------------------|



CHIERE,                        LUSTRA     L'ABITO    DA                             
-----------------0-----------|-----------------1-----------|
-----------3--------3--------|-----------1--------1--------|
--------3-----3--------3-----|--------2-----2--------2-----|
-----2--------------------2--|-----3--------------------3--|
--3-----------------3--------|-----------------------------|
-----------------------------|--1--------------------------|


RE:                             E'    LA CAR   ROZZA     DI     HANS.      
                                Am             Em             Am            E7 
-----------------3-----------|---------------|---------------|---------------|--0----|
-----------3--------3--------|--1------------|--0------------|--1------------|--3----|
--------4-----0--------4-----|--2------------|--0------------|--2------------|--1----|
-----2--------------------2--|--2------------|--2------------|--2------------|--2----|
-----------------------------|--0------------|--2------------|--0------------|--2----|
--0--------------------------|---------------|---------------|---------------|-- ----|


STRADE E STRADE CORRERAI, SENZA CONTARE,
CIELI E CIELI FINIRAI, TU SAI VOLARE,
SUONA UN CORNO DA COCCHIERE
LUSTRA L'ABITO DA RE:
E' LA CARROZZA DI HANS.




E||---------------0-------|--------3--------3--|---------------0-------|
B||-------------0---------|-----3--------3-----|-------------0---------|
G||-----------5--------5--|--4--------4--------|-----------5--------5--|
D||---------7-------7-----|--------------------|---------7-------7-----|
A||--0--------------------|--------------------|--0--------------------|
E||-----------------------|--------------------|-----------------------|


                                                                  
--------0--------0--|---------------0-------|--------3--------3--|
--------------------|-------------0---------|-----3--------3-----|
-----4--------4-----|-----------5--------5--|--4--------4--------|
--5--------5--------|---------7-------7-----|--------------------|
--------------------|--0--------------------|--------------------|
--------------------|-----------------------|--------------------|


                                                                             
-----------------0--|---------------|----------------------|----------------|
--------------------|---------------|-------7---------5----|-------3--------|
--------5-----4-----|---------------|----------------------|----------------|
-----7-----5--------|--7------------|----------------------|----------------|
--0-----------------|--0------------|--5---------3---------|--2-------------|
--------------------|---------------|----------------------|----------------|


                                                                         
------------------|------5-----------|-----1---------|--------------3---|
--3p1p0-----------|----5-------5---5-|---------------|--3---------3-----|
--------2p1-------|----------2-------|-------------2-|------------------|
------------3p2p0-|--------2---------|--0------0h3---|----2p0---------0-|
------------------|--3-----------3---|---------------|--------3-2-------|
------------------|------------------|---------------|------------------|


                                                                           
--------0---------|-------------0---|------------------|------0-5-1-------|
----0-0---------1-|-----------0-----|----0-------------|------------------|
--0-----------0---|-----------------|------------2-----|--2-5-------------|
------------2-----|-----------------|--2-----2-------2-|------------0h3-7-|
----------3-------|--3p2-0--------2-|----------0---3---|------------------|
------------------|--------4--------|------4-----------|------------------|


                                                                   
------7-10------|--------0h2h4p2p0-|--5-----------|--------------||
----7------9----|------0-----------|--------0-----|--------------||
--7-------------|----1-------------|-----2--1-----|--1h2p1--2----||
----------------|--2---------------|-----2-----4--|--------------||
----------------|------------------|--3--------0--|--------------||
----------------|------------------|--------------|------0-------||



E||-----2---------2------|-----2-------2-------2---|----5-------5-----|
B||-------0---------0----|-------0-------0-------0-|------0-------0---|
G||---------2----------2-|---------2-------2-------|--------5-------5-|
D||--0---------0---------|--0--------0-0-----0-----|--0-------0-------|
A||----------------------|-------------------------|------------------|
E||----------------------|-------------------------|------------------|

                                    
                                                                  
----5-------5-----|----5-------5-----|-----12---------12---------|
------0-------0---|------0-------0---|---------10---------10-----|
--------5-------5-|--------5-------5-|-------------9----------9--|
--0-------0-------|--0-------0-------|---------------------------|
------------------|------------------|--0------------------------|
------------------|------------------|---------------------------|


                                                                             
--12-----------12---------|--10----------10--------|--10----------10--------|
--10----10---------10-----|--8-----8---------8-----|--8-----8---------8-----|
--9---------9----------9--|--7--------7---------7--|--7--------7---------7--|
--------------------------|------------------------|------------------------|
--0-----------------------|--0---------------------|--0---------------------|
--------------------------|------------------------|------------------------|

                                   | da ripetere 8 volte: accellerando e poi rallentando-
                                   |                                                    |
-----2--------2-----2-----------2--|----2-------2---2---2---2-|                         |
-----------------------------------|--------------------------|               ----------| 
--------2--0-----2-----0--2--0-----|--------2---------2-------|
-----------------------------------|------5-------5-------5---|
-----------------------------------|--5-------5---------------|
--0--------------------------------|--------------------------|


                     3x                                           
|---------2-------2--||------------|-----0-----0--|-----------0--|
|-------5-------5----||------------|--1-----3-----|--1--1--0-----|
|*----2-------2-----*||-----2------|--------------|--2-----0-----|
|*--5-------5-------*||--5---------|--2-----3-----|--------------|
|--------------------||------------|--------------|--------------|
|--------------------||------------|--------------|--1-----3-----|


                                                               
----------------|-------------2--|-----2--3--0--|--5--0--7----|
--0h-3--1h3-1p0-|----------------|--0-----0-----|--0----------|
----------------|--2p0-----------|--------------|-------------|
----------------|------4p2-1-----|--1-----2-----|--4----------|
--------0-------|----------------|--------------|-------------|
--4-------------|----------------|--------------|--------0----|


                                                                      
--4----5-4-5-4--------|--2------------------|--4-----5-4-5--4-5-4----|
----------------5-----|--3--3---3--------3--|--5--5---------------5--|
--4----------------4--|--2----2-------2-----|--4---------------------|
----------------------|-----------0---------|------------------------|
----------------------|---------------------|------------------------|
--0-------------------|--0------------------|--0---------------------|


                                                    
--2------2h3p2-----------|----------4h5p4---------||
--3----3-------3-----3---|--------5-------5-------||
--2--2-----------2-------|------4-----------4-----||
-------------------0---0-|--------------------6-0-||
-------------------------|------------------------||
--0----------------------|--0---------------------||



E||--2----------3-2----------|--4--------7--------|--9-----------------|
B||--3--------3-----3-----3--|--5--------8--------|--10----------------|
G||--2------2----------2-----|--4--------7--------|--9-----------------|
D||--0-----------------------|--------------------|--------------------|
A||--------------------------|--------------------|--------------------|
E||--------------------------|--0--------0--------|--0-----------------|


                                                                        
--------------9----------|----------9--------7--7--|-----7--7----7-7-7-|
---------------------12--|-------------------------|-------------------|
-------------------------|----------------7--------|--7--------7-------|
-----------------12------|-------------------------|-------------------|
-----------7-------------|-------7-----------------|-------------------|
--0----------------------|--0----------0-----------|-------------------|


                     9x                              
|-----7-7-7---7-7-7--||----7-7----------|--4--------|
|--------------------||-------------3-3-|-----------|
|*--7-------7-------*||--7-----0--------|-----------|
|*------------------*||-----------------|-----------|
|--------------------||-----------------|-----------|
|--------------------||----------0------|-----------|


intermezzo

finale                                                                          
----------------------------------|--------------------------------------|
----------------------------------|--------------------------------------|
----------------------------------|--------------------------------------|
--------3t----2t----3t----4t----3t|------4t----5t----4t----5t----6t----5t|
----0-4---0-3---0-4---0-5---0-4---|--0-5---0-6---0-5---0-6---0-7---0-6---|
----------------------------------|--------------------------------------|


                                       
--------------------------------------|
--------------------------------------|
--------------------------------------|
------6t----7t----6t----7t----8t----7t|
--0-7---0-8---0-7---0-8---0-9---0-8---|
--------------------------------------|


                                                
-------------------------------------------||
-------------------------------------------||
-------------------------------------------||
------8t-----9t----8t-----9t-----10t-----9t||
--0-9---0-10---0-9---0-10---0-11----0-10---||
-------------------------------------------||




     
Добавлено: 15.07.2013
Вам также может быть интересно:
Другие материалы по этой песне:
  • Аккорды и текст

Страница создана 15.07.2013
http://primanota.ru/pfm/la-carrozza-di-hans-chords.htm
Привет, Гость.
Предлагаем пройти революционный курс по гитаре.
Подарок от PrimaNota.Ru, забирай!