PrimaNota.ru - самый крупный в мире бесплатный архив песенных текстов, аккордов, табулатур и нот


Pezz - Bird In The Basement - таба, видео

Регистрация Запомнить меня
Войти через:  Facebook Google Twitter Vk Yandex Mail.ru

Pezz - Bird In The Basement - таба, видео

Печатать
Просмотров: 107
Pezz - Bird in the Basement
Album: Watoosh!
Standard Tuning

-=Intro=-

e|-------------------------------------------------------------------|
B|------------------------------------------------------------3---5--|
G|------------------------5-5-x-7--7-7-7-----------------------------|
D|----------7--5--4-5-4---5-5-x-7--7-7-7----5-6-7--7---2----2-2-2-2--|
A|------3-7----5--4-5-4---3-3-x-5--5-5-5----5-6-7--7---2----2-2-2-2--|
E|--3-5--------3--2-3-2-------------------0-3-4-5--5---0----0-0-0-0--|x2

e|---------------------------------------------------------------------|
B|--------------------------------------------------------------3---5--|
G|--------------------------5-5-x-7--7-7-7-----------------------------|
D|----------7--5-5--4-5-4---5-5-x-7--7-7-7----5-6-7--7---2----2-2-2-2--|
A|------3-7----5-5--4-5-4---3-3-x-5--5-5-5----5-6-7--7---2----2-2-2-2--|
E|--3-5--------3-3--2-3-2-------------------0-3-4-5--5---0----0-0-0-0--|x2

-=Verse=-

e|----5---------3--------------------------------|
B|----5----7----3----5----3----7------6-----5----|
G|----5----7----4----5----3----7------5-----4----|
D|---7-----7---5-----5----3----7-----7-----6-----|
A|--------5---------3----1----5-----8-----7------|
E|-----------------------------------------------|x2

e|---5-5-x------------3-3-x-----------------------------------13-12-----|
B|---5-5-x--7--7-7-x--3-3-x--5--5-5-x---3-3-x--7--7-7-------13-----12---|
G|---5-5-x--7--7-7-x--4-4-x--5--5-5-x---3-3-x--7--7-7-----14---------13-|
D|---7-7-x--7--7-7-x--5-5-x--5--5-5-x---3-3-x--7--7-7-------------------|
A|----------5--5-5-x---------3--3-3-x---1-1-x--5--5-5-------------------|
E|----------------------------------------------------------------------|

e|---5-5-x------------3-3-x-----------------------------------13-----12-|
B|---5-5-x--7--7-7-x--3-3-x--5--5-5-x---3-3-x--7--7-7-------13-----12---|
G|---5-5-x--7--7-7-x--4-4-x--5--5-5-x---3-3-x--7--7-7-----14-----13-----|
D|---7-7-x--7--7-7-x--5-5-x--5--5-5-x---3-3-x--7--7-7-------------------|
A|----------5--5-5-x---------3--3-3-x---1-1-x--5--5-5-------------------|
E|----------------------------------------------------------------------|

-=Chorus=-

e|--5-(5)-----------------------------------7-(7)-------------------|
B|--5-(5)---6-5-3--------1-(1)--------------7-(7)--------7----------|
G|--5-(5)---7-5-4-5-4-2--2-(2)--------------8-(8)----------8--------|
D|--7-(7)---------7-5-3--2-(2)--------------9-(9)------9------2-(2)-|
A|--8-(8)----------------0-(0)---0-2-3-2-0--9-(9)----9--------2-(2)-|
E|------------------------------------------7-(7)--7----------0-(0)-|

e|--------------------|
B|--------------------|
G|--------------------|
D|--2-2-2-2-2-2-2-2---|
A|--2-2-2-2-2-2-2-2---|
E|--0-0-0-0-0-0-0-0---|
PM  * * * * * * * *

e|--5-(5)-----------------------------------7-(7)--------------|
B|--5-(5)---6-5-3--------1-(1)--------------7-(7)--------7-----|
G|--5-(5)---7-5-4-5-4-2--2-(2)--------------8-(8)----------8---|
D|--7-(7)---------7-5-3--2-(2)--------------9-(9)------9-------|
A|--8-(8)----------------0-(0)---0-2-3-2-0--9-(9)----9---------|
E|------------------------------------------7-(7)--7-----------|

e|-----------------------------|
B|-----------------------------|
G|-----------------------------|
D|--2-2-2-2-2-2-2-2-2-2-2-2-2--|
A|--2-2-2-2-2-2-2-2-2-2-2-2-2--|
E|--0-0-0-0-0-0-0-0-0-0-0-0-0--|
PM  * * * * * * * * * * * * 

-=Pre-Verse=

e|----------------------------------------------------------------|
B|---------------------------------------------------------3---5--|
G|---------------------5-5-x-7--7-7-7-----------------------------|
D|-------7--5--4-5-4---5-5-x-7--7-7-7----5-6-7--7---2----2-2-2-2--|
A|---3-7----5--4-5-4---3-3-x-5--5-5-5----5-6-7--7---2----2-2-2-2--|
E|-5--------3--2-3-2-------------------0-3-4-5--5---0----0-0-0-0--|

e|-------------------------------------------------------------------|
B|------------------------------------------------------------3---5--|
G|------------------------5-5-x-7--7-7-7-----------------------------|
D|----------7--5--4-5-4---5-5-x-7--7-7-7----5-6-7--7---2----2-2-2-2--|
A|------3-7----5--4-5-4---3-3-x-5--5-5-5----5-6-7--7---2----2-2-2-2--|
E|--3-5--------3--2-3-2-------------------0-3-4-5--5---0----0-0-0-0--|

-=Verse 2=-

Same as Verse 1

-=Chorus 2=-

Same as Chorus 1 except play this at the end instead
e|---------------------------------------------------|
B|---------------------------------------------------|
G|---------------------------------------------------|
D|--2-2-2-2-2-2-2-2-2-2-2-2-2-2-2-2-2-2-2-2-2-2-2-2--|
A|--2-2-2-2-2-2-2-2-2-2-2-2-2-2-2-2-2-2-2-2-2-2-2-2--|
E|--0-0-0-0-0-0-0-0-0-0-0-0-0-0-0-0-0-0-0-0-0-0-0-0--|
PM  * * * * * * * * * * * * * * * * * * * * * * * *

e|--------------------|
B|--------------------|
G|--9999999999999999--|
D|--9999999999999999--|
A|--7777777777777777--|
E|--------------------|

-=Outro=-

Play this 5 times
e|------------------------------------------------------|
B|------------------------------------------------------|
G|--2--2--2-2-2-2--2-2--2--2--2--2--2-2-2-2--2-2--2--2--|
D|--3--3--3-3-3-3--3-3--3--3--2--2--2-2-2-2--2-2--2--2--|
A|--3--3--3-3-3-3--3-3--3--3--0--0--0-0-0-0--0-0--0--0--|
E|--1--1--1-1-1-1--1-1--1--1----------------------------|

e|------------------------------------------------------|
B|------------------------------------------------------|
G|--4--4--4-4-4-4--4-4--4--4----------------------------|
D|--4--4--4-4-4-4--4-4--4--4--2--2--2-2-2-2--2-2--2--2--|
A|--2--2--2-2-2-2--2-2--2--2--2--2--2-2-2-2--2-2--2--2--|
E|----------------------------0--0--0-0-0-0--0-0--0--0--|


Then Play
e|------------------------------------------------------------------|
B|------------------------------------------------------------------|
G|--2--2--2-2-2-2--2-2--------------2--2--2-2-2-2--2-2--------------|
D|--3--3--3-3-3-3--3-3--------------2--2--2-2-2-2--2-2--------------|
A|--3--3--3-3-3-3--3-3--------2--3--0--0--0-0-0-0--0-0--0--2--3--2--|
E|--1--1--1-1-1-1--1-1--3--5----------------------------------------|

e|------------------------------------------------------------------|
B|------------------------------------------------------------------|
G|--4--4--4-4-4-4--4-4--4-4--4-4-4-4--------------------------------|
D|--4--4--4-4-4-4--4-4--4-4--4-4-4-4--2-2-2-2-2-2-2-2-2-2-2-2-2-----|
A|--2--2--2-2-2-2--2-2--2-2--2-2-2-2--2-2-2-2-2-2-2-2-2-2-2-2-2-----|
E|------------------------------------0-0-0-0-0-0-0-0-0-0-0-0-0-----|
                                      * * * * * * * * * * * * 

e|---------------------------------------|
B|---------------10----10----10----10----|
G|---------------12br--12br--12br--12b---|
D|-----------7---------------------------|
A|-----3--7------------------------------|
E|--5------------------------------------|

That's it

Any feedback or suggestions leave a comment.
Добавлено: 02.03.2012
Другие материалы по этой песне:
  • Аккорды и текст

Страница создана 02.03.2012
http://primanota.ru/pezz/bird-in-the-basement-chords.htm
Привет, Гость.
Предлагаем пройти революционный курс по гитаре.
Подарок от PrimaNota.Ru, забирай!