PrimaNota.ru - самый крупный в мире бесплатный архив песенных текстов, аккордов, табулатур и нот


Petra - Think Twice - текст песни, таба, видео

Регистрация Запомнить меня
Войти через:  Facebook Google Twitter Vk Yandex Mail.ru

Petra - Think Twice - текст песни, таба, видео

Печатать
Просмотров: 95
		   "Think Twice" (c. 1995, Petsong Pub.) 
performed by Petra
from the album "No Doubt" (c. 1995, Word Records)
Words by Bob Hartman
Music by John Elefante, 
Ronny Cates, and Jim Cooper
as played by Nathan Moussa
	(http://www.geocities.com/SunsetStrip/3960/)

Intro
|   |--------------------------------|--------------------------------|
|T  |--------------------------------|--------------------------------|
|A 4|--------------------------------|--------------------------------|
|B 4|9/11----11----9---8-------------|9/11----11----9---8-------------|
|   |-------------------11-9-8-------|-------------------11-7-9-------|
|   |----9-------9-------------9-7-9-|----9-------9-------------------|
     1 e & a 2 e & a 3 e & a 4 e & a  1 e & a 2 e & a 3 e & a 4 e & a



|   |--------------------------------|--------------------------------|
|T  |--------------------------------|--------------------------------|
|A 4|--------------------------------|--------------------------------|
|B 4|9/11----11----9---8-------------|9/11----11----9---8-------------|
|   |-------------------11-9-8-------|-------------------11-7-9-------|
|   |----9-------9-------------9-7-9-|----9-------9-------------------|
     1 e & a 2 e & a 3 e & a 4 e & a  1 e & a 2 e & a 3 e & a 4 e & a



Verse (part A)
|   |--------------------------------|--------------------------------|
|T  |--------------------------------|--------------------------------|
|A 4|--------------------------------|--------------------------------|
|B 4|9/11----11----9---8-------------|9/11----11----9---8-------------|
|   |-------------------11-9-8-------|-------------------11-7-9-------|
|   |----9-------9-------------9-7-9-|----9-------9-------------------|
     1 e & a 2 e & a 3 e & a 4 e & a  1 e & a 2 e & a 3 e & a 4 e & a
     You can think of times when you | You could make a choice when
         had the right chance        |      nobody could see

|   |--------------------------------|--------------------------------|
|T  |--------------------------------|--------------------------------|
|A 4|--------------------------------|--------------------------------|
|B 4|9/11----11----9---8-------------|9/11----11----9---8-------------|
|   |-------------------11-9-8-------|-------------------11-7-9-------|
|   |----9-------9-------------9-7-9-|----9-------9-------------------|
     1 e & a 2 e & a 3 e & a 4 e & a  1 e & a 2 e & a 3 e & a 4 e & a
     You could think of ways of      | Justify the way that you wanted
          defending your deeds       |     to be

Verse (part B)
|   |--------------------------------|--------------------------------|
|T  |--------------------------------|--------------------------------|
|A 4|--------------------------------|--------------------------------|
|B 4|9/11----11----9---8-------------|9/11----11----9---8-------------|
|   |-------------------11-7-9-------|-------------------11-9-8-------|
|   |----9-------9-------------------|----9-------9-------------9-8-9-|
     1 e & a 2 e & a 3 e & a 4 e & a  1 e & a 2 e & a 3 e & a 4 e & a
     W     a      i     t      just a m i n u t e


|   |--------------------------------|--------------------------------|
|T  |--------------------------------|--------------------------------|
|A 4|--------------------------------|--------------------------------|
|B 4|9/11----11----9---8-------------|9/11----11----9---8-------------|
|   |-------------------11-7-9-------|-------------------11-9-8-------|
|   |----9-------9-------------------|----9-------9-------------9-8-9-|
     1 e & a 2 e & a 3 e & a 4 e & a  1 e & a 2 e & a 3 e & a 4 e & a
     W     a      i     t      just a m i n u t e


Chorus
|   |--------------------------------|--------------------------------|
|T  |--------0---------------0-------|--------0---------------0-------|
|A 4|--------------------------------|--------------------------------|
|B 4|--------------------------------|--------------------------------|
|   |----7-------7-------9-------9---|----2-------2-------4-------4---|
|   |5---------------7---------------|0---------------2---------------|
     1 e & a 2 e & a 3 e & a 4 e & a  1 e & a 2 e & a 3 e & a 4 e & a
     H e y,  did you ever think twice Something inside says stay away


|   |--------------------------------|--------------------------------|
|T  |--------0---------------0-------|--------0---------------0-------|
|A 4|--------------------------------|--------------------------------|
|B 4|--------------------------------|--------------------------------|
|   |----7-------7-------9-------9---|----9-------9-------9-------9---|
|   |5---------------7---------------|7---------------7---------------|
     1 e & a 2 e & a 3 e & a 4 e & a  1 e & a 2 e & a 3 e & a 4 e & a
     H e y,  did you ever think twice When there's still time you can 
                                           go the other way

|   |--------------------------------|--------------------------------|
|T  |--------0---------------0-------|--------0---------------0-------|
|A 4|--------------------------------|--------------------------------|
|B 4|--------------------------------|--------------------------------|
|   |----7-------7-------9-------9---|----2-------2-------4-------4---|
|   |5---------------7---------------|0---------------2---------------|
     1 e & a 2 e & a 3 e & a 4 e & a  1 e & a 2 e & a 3 e & a 4 e & a
     H e y,  did you ever think twice If you don't bother gonna pay the 
                                                         price

|   |--------------------------------|2-------------------------------|
|T  |--------0---------------0-------|2-------------------------------|
|A 4|--------------------------------|--------------------------------|
|B 4|--------------------------------|4-------------------------------|
|   |----7-------7-------9-------9---|4-------------------------------|
|   |5---------------7---------------|2-------------------------------|
     1 e & a 2 e & a 3 e & a 4 e & a  1 e & a 2 e & a 3 e & a 4 e & a
     H e y,  did you ever think twice	


|   |2-------------------------------|
|T  |2-------------------------------|
|A 4|--------------------------------|
|B 4|4-------------------------------|
|   |4-------------------------------|
|   |2-------------------------------|
     1 e & a 2 e & a 3 e & a 4 e & a  



Fill
|   |--------------------------------|--------------------------------|
|T  |--------------------------------|--------------------------------|
|A 4|--------------------------------|--------------------------------|
|B 4|9/11----11----9---8-------------|9/11----11----9---8-------------|
|   |-------------------11-9-8-------|-------------------11-7-9-------|
|   |----9-------9-------------9-7-9-|----9-------9-------------------|
     1 e & a 2 e & a 3 e & a 4 e & a  1 e & a 2 e & a 3 e & a 4 e & a


-Verse (parts A & B)-
You can think of things that you wanted to try
You can think of the things that you wish you could see
You could go a way thaat would seem to right
Thinking of a place that you wish you could be

Wait just a minute
Wait just a minute

Chorus
|   |--------------------------------|--------------------------------|
|T  |--------0---------------0-------|--------0---------------0-------|
|A 4|--------------------------------|--------------------------------|
|B 4|--------------------------------|--------------------------------|
|   |----7-------7-------9-------9---|----2-------2-------4-------4---|
|   |5---------------7---------------|0---------------2---------------|
     1 e & a 2 e & a 3 e & a 4 e & a  1 e & a 2 e & a 3 e & a 4 e & a
     H e y,  did you ever think twice Something inside says stay away


|   |--------------------------------|--------------------------------|
|T  |--------0---------------0-------|--------------------------------|
|A 4|--------------------------------|--------------------------------|
|B 4|--------------------------------|--------------------------------|
|   |----7-------7-------9-------9---|11------------------------------|
|   |5---------------7---------------|9-------------------------------|
     1 e & a 2 e & a 3 e & a 4 e & a  1 e & a 2 e & a 3 e & a 4 e & a
     H e y,  did you ever think twice When there's still time you can 
                           			go the other way

|   |--------------------------------|--------------------------------|
|T  |--------0---------------0-------|--------0---------------0-------|
|A 4|--------------------------------|--------------------------------|
|B 4|--------------------------------|--------------------------------|
|   |----7-------7-------9-------9---|----2-------2-------4-------4---|
|   |5---------------7---------------|0---------------2---------------|
     1 e & a 2 e & a 3 e & a 4 e & a  1 e & a 2 e & a 3 e & a 4 e & a
     H e y,  did you ever think twice If you don't bother, gonna pay
							the price

|   |--------------------------------|2-------------------------------|
|T  |--------0---------------0-------|2-------------------------------|
|A 4|--------------------------------|--------------------------------|
|B 4|--------------------------------|4-------------------------------|
|   |----7-------7-------9-------9---|4-------------------------------|
|   |5---------------7---------------|2-------------------------------|
     1 e & a 2 e & a 3 e & a 4 e & a  1 e & a 2 e & a 3 e & a 4 e & a
     H e y,  did you ever think twice


|   |2-------------------------------|
|T  |2-------------------------------|
|A 4|--------------------------------|
|B 4|4-------------------------------|
|   |4-------------------------------|
|   |2-------------------------------|
     1 e & a 2 e & a 3 e & a 4 e & a  

-Fill-

Alternate Verse  \=slide
|   |--------------------------------|--------------------------------|
|T  |--------------------------------|--------------------------------|
|A 4|------------9\--\--\------------|--------------------------------|
|B 4|--------2---9\--\--\------------|4---4--(4)----------------------|
|   |----2---2-----------------------|2---2---0-----------2-------0---|
|   |0---0---0-----------4---5---6---|----------4-2-----------------4-|
     1 e & a 2 e & a 3 e & a 4 e & a  1 e & a 2 e & a 3 e & a 4 e & a
     Face                to face with sin                 you better think


|   |--------------------------------|--------------------------------|
|T  |5/7-----7-----5---4-------------|5/7-----7-----5---4-------------|
|A 4|--------------------6-4-3-------|--------------------6-4-3-------|
|B 4|----4-------4-------------4-2-4-|----4-------4-------------4-2-4-|
|   |--------------------------------|--------------------------------|
|   |--------------------------------|--------------------------------|
     1 e & a 2 e & a 3 e & a 4 e & a  1 e & a 2 e & a 3 e & a 4 e & a
    again,		 you better  again
				think

|   |--------------------------------|--------------------------------|
|T  |--------------------------------|--------------------------------|
|A 4|------------9\--\--\------------|--------------------------------|
|B 4|--------2---9\--\--\------------|4---4--(4)----------------------|
|   |----2---2-----------------------|2---2---0-----------2-------0-2-|
|   |0---0---0-----------4---5---6---|----------4-2-------------------|
     1 e & a 2 e & a 3 e & a 4 e & a  1 e & a 2 e & a 3 e & a 4 e & a
     Take                a - nother   look                for a second


|   |--------------------------------|--------------------------------|
|T  |--------------------------------|--------------------------------|
|A 4|--------------------------------|--------------------------------|
|B 4|--------------------------------|--------------------------------|
|   |6-------------------------------|7-----------9-------------------|
|   |4-------------------------------|5-----------7-------------------|
     1 e & a 2 e & a 3 e & a 4 e & a  1 e & a 2 e & a 3 e & a 4 e & a
     time        And give a second    where you draw the line
                            thought to

|   |--------------------------------|--------------------------------|
|T  |------------2-4-2---------------|------------2-4-2---------------|
|A 4|--------------------------------|--------------------------------|
|B 4|--------------------------------|--------------------------------|
|   |--------------------------------|--------------------------------|
|   |--------------------------------|--------------------------------|
     1 e & a 2 e & a 3 e & a 4 e & a  1 e & a 2 e & a 3 e & a 4 e & a



|   |--------------------------------|--------------------------------|
|T  |------------2-4-2---------------|------------2-4-2---------------|
|A 4|--------------------------------|--------------------------------|
|B 4|--------------------------------|--------------------------------|
|   |--------------------------------|--------------------------------|
|   |--------------------------------|--------------------------------|
     1 e & a 2 e & a 3 e & a 4 e & a  1 e & a 2 e & a 3 e & a 4 e & a


-Verse (part B)-
Wait just a minute
Wait just a minute

-Chorus-     
Добавлено: 07.08.2013
Другие материалы по этой песне:
  • Аккорды и текст

Страница создана 08.03.2012
http://primanota.ru/petra/think-twice-chords.htm
Привет, Гость.
Предлагаем пройти революционный курс по гитаре.
Подарок от PrimaNota.Ru, забирай!