PrimaNota.ru - самый крупный в мире бесплатный архив песенных текстов, аккордов, табулатур и нот


Petra - Second Wind - аккорды и текст, таба, видео

Регистрация Запомнить меня
Войти через:  Facebook Google Twitter Vk Yandex Mail.ru

Petra - Second Wind - аккорды и текст, таба, видео

Печатать
Просмотров: 171
Second Wind
Petra
		   Second Wind
                            as recorded by:  Petra
                        on the album:  More Power to Ya
				bvaughn@stat.ufl.edu


4/4
-|------------------|--------------|------------|------------------------|-----
-|------------------|--------------|------------|------------------------|-----
-|------------------|--------------|------------|-------0--2-----------2/|-(2)-
-|--------7-------5/|--(5)-------4/|--(4)--2--3/|--(3)--------2--3--2--2/|-(2)-
-|-----------5/7----|-------4/5----|------------|----------------------0/|-(0)-
-|------------------|--------------|------------|------------------------|-----


                                                                   %
-------|--------------|------------|----------------------------|--------------
-------|--------------|------------|-------------1--0-----------|--------------
-------|--------------|------------|-------0--2--------2--0-----|--------------
-----5/|--(5)-------4/|--(4)--2--3/|--(3)--------------------3--|--------------
5/7----|-------4/5----|------------|----------------------------|--------------
-------|--------------|------------|----------------------------|--------------

pm [--                                                         verse
-------------------------------|--------------------------||-------------------
-------------------------------|--------------------------||-------------------
-------2--2--2--2--2--2--2--2--|--2--2--2--2--2--2--2--2--||*------------2-----
-------2--2--2--2--2--2--2--2--|--2--2--2--2--2--2--2--2--||*------------2-----
-------0--0--0--0--0--0--0--0--|--0--0--0--0--0--0--0--0--||-------------0-----
-------------------------------|--------------------------||-------------------

                                    --]             pm [--
---------------------|---------------------------|-----------------------------
---------------------|---------------------------|------------3--3--3--3--3----
2--2--2--2--2--2--2--|--2--2--2--2---------2--0--|------------2--2--2--2--2----
2--2--2--2--2--2--2--|--2--2--2--2---------2--0--|------------0--0--0--0--0----
0--0--0--0--0--0--0--|--0--0--0--0---------0-----|-----------------------------
---------------------|------------------------3--|-----------------------------

                        -- ]
---------|--------------------------|-----|--------------------|-----|---------
3--3--3--|--3--3--3--3---------3----|-----|--------------------|-----|---------
2--2--2--|--2--2--2--2---------2-5\-|--3--|--3-----3-----------|--5--|---------
0--0--0--|--0--0--0--0---------0-5\-|--3--|--3--3--3--3--x--x--|--5--|---------
---------|-----------------------3\-|--1--|--1--3--1--3--x--x--|--3--|---------
---------|--------------------------|-----|-----1-----1--------|-----|---------


[ 1st ending       ]     [ 2nd ending       ]        chorus                     ---------------------||-------------------------||-------------------------|--
---------------------||---------------3---------||----------5--5-----5--5--|---
----5---------------*||------5-----5--2--2------||*---------4--4-----4--4--|---
----5--5-----3--5---*||------5--5--5--0--2------||*---------2--2-----2--2--|---
----3--5-----3--5----||------3--5--3-----0------||----------2--2-----2--2--|---
-------3-----1--3----||---------3---------------||----------0--0-----0--0--|---


---------------|-----------------|------------------------||-------------------
5--5-----3-----|--5--5-----5--5--|------------------------||-------------------
4--4-----2--2--|--4--4-----4--4--|-----------------------*||-------------------
2--2-----0--2--|--2--2-----2--2--|--0--2--4--0--2--------*||-----0--2-----0----
2--2--------0--|--2--2-----2--2--|-----------------4--0---||--3--------2-------
0--0-----------|--0--0-----0--0--|------------------------||-------------------


           2/4      0+0   4/4
---------|------------|-----------------|---------------|----------------|-----
---------|------------|-----------------|---------------|----------------|-----
------4--|------4--4--|-----------------|---------------|----------------|-----
------4--|------4--4--|------7-------5--|--(5)-------4--|--(4)-----2--3--|-----
2-----2--|------2--2--|---------5/7-----|-------4/5-----|----------------|-----
---3-----|------------|-----------------|---------------|----------------|-----


             D.S. al CODA       CODA
---------------------------||----------------|--------------------|--------|---
-----------1--0------------||----------------|--------------------|--------|---
-----0--2---------2--0-----||*---9--7--5-----|--9--7-----5--x-----|-----7--|---
(3)---------------------3--||*---9--7--5--7--|--9--7-----5--x--7--|--5--7--|---
---------------------------||-------------7--|-----------------7--|--5--5--|---
---------------------------||----------------|--------------------|--3-----|---


[ 1st ending                 ]     [2nd ending
-------------------------------||---------------------|------------------------
-------------------------------||------------5--------|------------------------
------------------------------*||------------4--------|-----------0------------
----7---10p7---10p7-----5h7---*||------------2--------|-----0--------2--1--0---
----7---10p7---10p7------------||------------2-----0--|--2-----2---------------
-------------------------------||------0-----0--------|------------------------

   ]                                                  [- p.m.
-----||-----------------|--------------------------|---------------------------
-----||--------5--------|--------------------------|---------------------------
----*||--------4--------|-----------0--------------|------2--2--2--2--2--2-----
----*||--------2--------|-----0--------2--1--0-----|------2--2--2--2--2--2-----
2----||--------2-----0--|--2-----2--------------2--|------0--0--0--0--0--0-----
-----||--0-----0--------|--------------------------|---------------------------


                     -]              [- p.m.
------|---------------------------|---------------------------------|----------
------|---------------------------|---------3--3--3--3--3--3--3--3--|--3--3----
2--2--|--2--2--2--2---------2-----|---------2--2--2--2--2--2--2--2--|--2--2----
2--2--|--2--2--2--2---------2--5--|---------0--0--0--0--0--0--0--0--|--0--0----
0--0--|--0--0--0--0---------0--5--|---------------------------------|----------
------|------------------------3--|---------------------------------|----------


      -]
--------------------|-----|--------------------|-----|-----------------||-----
3--3---------3------|-----|--------------------|-----|-----------3-----||-----
2--2---------2--5\3-|--3--|--3-----3-----------|--5--|--5-----5--2--2--||*----
0--0---------0--5\3-|--3--|--3--3--3--3--x--x--|--5--|--5--5--5--0--2--||*----
----------------3\1-|--1--|--1--3--1--3--x--x--|--3--|--3--5--3-----0--||-----
--------------------|-----|-----1-----1--------|-----|-----3-----------||-----


ending
-------------------|-----------------|-----------------|-----------------------
----5--5-----5--5--|--5--5-----3-----|--5--5-----5--5--|-----------------------
----4--4-----4--4--|--4--4-----2--2--|--4--4-----4--4--|-----------------------
----2--2-----2--2--|--2--2-----0--2--|--2--2-----2--2--|--0--2--4--------------
----2--2-----2--2--|--2--2--------0--|--2--2-----2--2--|-----------------------
----0--0-----0--0--|--0--0-----------|--0--0-----0--0--|-----------------------


Repeat till fade out
--------------||---------------------------------------------------------------
--------------||---------------------------------------------------------------
-------------*||---------------------------------------------------------------
-0--2--------*||---------------------------------------------------------------
-------4--0---||---------------------------------------------------------------
--------------||---------------------------------------------------------------




===============================================================================
==                           TABLATURE EXPLANATION                            =
===============================================================================

----------                            ----------
----5h8--- Hammeron                   ----(8)--- Ghost Note
----------                            ----------
----5p8--- Pulloff                    ----------

----------                            ----------
----5/8--- Slide Up                   -----x---- Dead Note
----------                            ----------
----5\8--- Slide Down                 ----------

----------                            ||------|| Repeat Start & End
----5~~~-- Vibrato                    ||*----*||
----------                            ||*----*||
----------                            ||------||

D.S. al CODA    Return to %, play to 0+0  and skip to the CODA.


===============================================================================
==           Created with a shareware version of the BUCKET 'O TAB            =
==                  tablature creation software for Windows                   =
==                           For more information:                            =
==                          email: gse@ocsystems.com                          =
==      US Mail: The Bucket, 3176-B5 Summit Square Dr., Oakton, VA 22124
===============================================================================     
Добавлено: 28.07.2013
Другие материалы по этой песне:
  • Аккорды и текст

Страница создана 27.02.2012
http://primanota.ru/petra/second-wind-chords.htm
Привет, Гость.
Предлагаем пройти революционный курс по гитаре.
Подарок от PrimaNota.Ru, забирай!