PrimaNota.ru - самый крупный в мире бесплатный архив песенных текстов, аккордов, табулатур и нот


Petra - Jekyll & Hyde - текст песни, таба, видео

Регистрация Запомнить меня
Войти через:  Facebook Google Twitter Vk Yandex Mail.ru

Petra - Jekyll & Hyde - текст песни, таба, видео

Печатать
Просмотров: 197
Авторы музыки: Bob Hartman
Авторы текста: Bob Hartman
-----------------------------------------------------------------------------
                            Petra - Jekyll & Hyde
-----------------------------------------------------------------------------
Tabbed By: Max Andersen
E-mail: deckrider@hotmail.com


Tunning: Drop-D

riff 1
e|----------------|
B|----------------|
G|----------------|
D|-0-0-3-0h2-0-0x-|
A|-0-0-3-0h2-0-0x-|
D|-0-0-3-0h2-0-0x-|

riff 2
e|----------------------------------|
B|----------------------------------|
G|----------------------------------|
D|-0-0-3-0h2-0-0-0-0-0-0-3-0h2-0-0x-|
A|-0-0-3-0h2-0-0-0-0-0-0-3-0h2-0-0x-|
D|-0-0-3-0h2-0-0-0-0-0-0-3-0h2-0-0x-|
                 . .

riff 3
e|--------------------|
B|--------------------|
G|-9-10-10--5--8-8-3--|
D|-9-10-10--5--8-8-3--|
A|-7-8--8---3--6-6-1--|
D|--------------------|

riff 4
e|---------------------------------------------------------|
B|---------------------------------------------------------|
G|------5-----------------------5-7--------------------5-7-|
D|-3--3-5-----------------------x-x--------------------x-x-|
A|-3--3-3-----------------------3-5--------------------3-5-|
D|-3--2---0-0-0-0-3-2-0-0--0--0-----0-0-0-0-3-2-0-0--0-----|
          . . . . . . . .  .  .     . . . . . . . .  .
riff 5
e|--------------------|
B|--------------------|
G|-------5------------|
D|-3-3-3-5-0-0x--0-0x-|
A|-3-3-3-3-0-0x--0-0x-|
D|-3-3-2---0-0x--0-0x-|

riff 6
e|-----------------------------------|
B|-----------------------------------|
G|-----------------------------------|
D|-0-0-3-0h2-0-0-0-0-0-0-3-0-2-0-0-5-|
A|-0-0-3-0h2-0-0-0-0-0-0-3-0---0-0-3-|
D|-0-0-3-0h2-0-0-0-0-0-0-3-0---0-0---|
                 . .

riff 7
e|-------------|
B|-------------|
G|-------------|
D|-3--3--1--0--|
A|-3--3--1--0--|
D|-3--2--1--0--|

riff 8
e|------------------------------------------------------------------------|
B|------------------------------------------------------------------------|
G|o--\---10-----10\9-------------10-----10\9--------10-----10\9-----------|
D|o--\---10-0-0-10\9---0--3-5----10-0-0-10\9---0----10-----10\9---0--3-5--|
A|---\---8--0-0-8-\7---0--3-5----8--0-0-8-\7---0----8------8-\7---0--3-5--|
D|---\-0----0-0------3-0--3-5--0----0-0------3-0--0----0-0------3-0--3-5--|
            . .                     . .                . .

e|----------------------|
B|----------------------|
G|---10-----10---------o|
D|---10-----10-3/10-10-o|
A|---8------8--3/10-10--|
D|-0----0-0----3/10-10--|
        . .
 
riff 9
e|--------------------------|
B|--------------------------|
G|--------------------------|
D|-0-0x--0-0x--0-0-3-3-5-5--|
A|-0-0x--0-0x--0-0-3-3-5-5--|
D|-0-0x--0-0x--0-0-3-3-5-5--|
         .     . .

riff 10
e|--------------------------------------------------|
B|--------------------------------------------------|
G|-----------------------5-7--------------------5-7-|
D|-----------------------x-x--------------------x-x-|
A|-----------------------3-5--------------------3-5-|
D|-0-0-0-0-3-2-0-0--0--0-----0-0-0-0-3-2-0-0--0-----|
 
riff 11
e|-----------------------------------------------------|
B|-----------------------------------------------------|
G|-----------------------5-7---------------------------|
D|-----------------------x-x---------------0-----3-3-1-|
A|-----------------------3-5---------------0-----3-3-1-|
D|-0-0-0-0-3-2-0-0--0--0-----0-0-0-0-3-2-0-0-0-2-3-2-1-|
   . . . . . . . .  .  .     . . . . . .    

riff 12
e|---------------------------------------------------|
B|---------------------------------------------------|
G|---------------------------------------------------|
D|-0-0x--0-0-3-0h2-0-0-xxx--0-0x--0-0-3-0h2-0-0-5~~--|
A|-0-0x--0-0-3-0h2-0-0-xxx--0-0x--0-0-3-0h2-0-0------|
D|-0-0x--0-0-3-0h2-0-0-xxx--0-0x--0-0-3-0h2-0-0------|
                 
riff 13
e|----------------------------------------------|
B|----------------------------------------------|
G|---------------------5~~----------------------|
D|-0-0x--0-0-3-0h2-0-0-5~~-------------3-5-0-0x-|
A|-0-0x--0-0-3-0h2-0-0-----------------3-5-0-0x-|
D|-0-0x--0-0-3-0h2-0-0------0--3--2--0-3-5-0-0x-|
       

| / Slide up
| \ Slide down 
| h Hammer-on
| p Pull off
| ~ Vibrato
| ()Harmonic
| x Mute note
| . Palm mute

=============================================================================
Добавлено: 30.07.2012
Другие материалы по этой песне:
  • Аккорды и текст

Страница создана 27.04.2012
http://primanota.ru/petra/jekyll-and-hyde-chords.htm
Привет, Гость.
Предлагаем пройти революционный курс по гитаре.
Подарок от PrimaNota.Ru, забирай!