PrimaNota.ru - самый крупный в мире бесплатный архив песенных текстов, аккордов, табулатур и нот


Petra - Dance - текст песни, таба, видео

Регистрация Запомнить меня
Войти через:  Facebook Google Twitter Vk Yandex Mail.ru

Petra - Dance - текст песни, таба, видео

Печатать
Просмотров: 105
Авторы музыки: John Elefante
Авторы текста: Bob Hartman
  Petra - Dance


  Intro riff

       Pm(--)
E 3-3-2-0-------------3-3-2-0-|
B 3-3-2-0-------0-----3-3-2-0-|
G --------------0-------------|
D --------0-0-2---2(2)--------|
A --------0-0-2---2(2)--------|
E ----------------------------|

Pm(--)
E ---------------------------|
B -------0-2(2)--------------|
G -------0-2(2)--------------|
D -0-0-2---------------------|
A -0-0-2---------------------|
E ---------------------------|
     Riff 2

Pm(--------)  (---------------|
E ----------------------------|
B ----------------------------|
G ----------------------------|
D ----------------------------|
A -----------5----------------|
E 3-2-0-0000---0-0-3-2-0-3-2--|

 (-) (----)  (-----)  (-------|
E ----------------------------|
B ----------------------------|
G ----------------------------|
D --2-------------------------|
A ----------5-------2---------|
E 0---3-2-0---0-0-0-0-3-2-0-3-|

  (----)  (-----) (-----------|
E ----------------------------|
B ----------------------------|
G ----------------------------|
D ----------------------------|
A -------5-------2------------|
E -2-0-0---0-0-0-0-3-2-0-3-2--|

  (--)  (---------------------|
E ----------------------------|
B ----------------------------|
H ----------------------------|
D ----------------------------|
A -----5----------------------|
E -0-0---0-0-0-0--------------|

  Verse
      Pm(---------------------|
E -3--(3)---------------------|
B -3--(3)---------------------|
H -0--(0)---------------------|
D -0--(0)---------------------|
A -*--------------------------|
E -3--(3)33333333333333333333-|

Pm (---) palm mute
*  mute string
(0) hold note
Добавлено: 25.09.2015
Другие материалы по этой песне:
  • Аккорды и текст

Страница создана 08.02.2014
http://primanota.ru/petra/dance-chords.htm
Привет, Гость.
Предлагаем пройти революционный курс по гитаре.
Подарок от PrimaNota.Ru, забирай!