PrimaNota.ru - самый крупный в мире бесплатный архив песенных текстов, аккордов, табулатур и нот


Petra - Bema Seat - текст песни, таба, видео

Регистрация Запомнить меня
Войти через:  Facebook Google Twitter Vk Yandex Mail.ru

Petra - Bema Seat - текст песни, таба, видео

Печатать
Просмотров: 113
Авторы музыки: Bob Hartman
Авторы текста: Bob Hartman
Petra - Bema Seat (Intro)

PM(------------------------)
E -------------------------|
B -------------------------|
G -------------------------|
D -----------5-------------|
A -------5-----7-6-5-------|
E -0-5-7---7---------7-6-5-|

     PM(---)   PM(----------|
E --------------------------|
B --------------------------|
G --------------------------|
D --------------------------|
A -2(2)------2(2)------2(2)-|
E -0(0)0-0-0-0(0)0-0-0-0(0)-|

PM(-------------|
E --------------|
B --------------|
G --------------| (2x)
D --------------|
A -------2-2-2--|
E -0-0-0-0-0-0--|


     Pm(----)  (----)  (----|
E --------------------------|
B -9-7----------------------|(7)
G -9-7----------------------|(7)
D -7-7----------------------|(7)
A --------------------------|
E ------0-0-0-0-0-0-0-0-0-0-|

Pm(------)   Pm(----)  (----|
E --------------------------|
B ---------4-2--------------|
G ---------4-2--------------|
D ---------2-2--------------|
A --------------------------|
E -0-0-0-0------0-0-0-0-0-0-|

Pm(-) (-------------|
E ------------------|(2)
B ------------------|(2)
G ------------------|(2)
D ------------------|
A ------------------|
E -0-0-0-0-0-0-0-0--|
Добавлено: 25.09.2015
Другие материалы по этой песне:
  • Аккорды и текст

Страница создана 30.05.2012
http://primanota.ru/petra/bema-seat-chords.htm
Привет, Гость.
Предлагаем пройти революционный курс по гитаре.
Подарок от PrimaNota.Ru, забирай!