PrimaNota.ru - самый крупный в мире бесплатный архив песенных текстов, аккордов, табулатур и нот


Petra - All Over Me - текст песни, таба, видео

Регистрация Запомнить меня
Войти через:  Facebook Google Twitter Vk Yandex Mail.ru

Petra - All Over Me - текст песни, таба, видео

Печатать
Просмотров: 207
Уроки эстрадного вокала в Санкт-Петербурге
Авторы музыки: Bob Hartman
Авторы текста: Bob Hartman
		   Title: All Over Me
Artist: Petra
Album: More Power To Ya
Transcribed: Daniel Bradish

Guitar 1 (Electric)

Intro: [Clean Tone]
e:-----------------------I---------------I
B:-----------------------I---------------I
G:---------7-------------I---------------I
D:-----7-9---9---9-7-9---I-7-8-9---9-7-9-I
A:-7-9-------------------I---------------I
E:-----------------------I---------------I

[Repeat Intro]
All over me. All over me.

e:------------------------------------------------I
B:------------------------------------------------I
G:-----7-9-9p7-9p7-9-10-10-9p7--------------------I
D:-9-9-------------------------9p7-9---9-7-9---7--I
A:------------------------------------------------I
E:------------------------------------------------I
I've got the blood of an innocent man all over me.

e:-------------------------I----------------------I
B:-------------------------I-----10--7------------I
G:-7---9-----------------7-I-9--------------------I
D:---------9---7-9---7-----I-------------7-9---7--I
A:-------------------------I----------------------I
E:-------------------------I----------------------I
    He never did anything to hurt anyone.
But he said somethin' 'bout being God's own Son.

  [* = Activate Heavy Distortion]
e:-----------------------I----------*-----------I
B:------------12---------I-----12-x-*--7--------I
G:-9---9/11-9----9p7-7-9-I-9--------*-----------I
D:-----------------------I----------*--9--9-7-9-I
A:-----------------------I----------*--9--------I
E:-----------------------I----------*-----------I
Some people believed him, some people recieved him.  
Some people wouldn't stop 'till they saw Him die.
_ 
   [() = Second Time Only]
 e:------------------------I------------------I
 B:-----------7-[Let Ring]-I-----7-[Let Ring]-I
 G:---------7--------------I------------------I
 D:-----7-9---9---9-7-9----I-7-8-9---9-7-9----I
 A:-7-9-------9---9-7-9----I-7-8-9---9-7-9----I
 E:------------------------I------------------I
 All over me. All over me.

 e:-------------------------I
 B:------------7-[Let Ring]-I
 G:-------10-9--------------I
 D:---9---10-9-9-9-7-9--(7)-I 
 A:---7----8-7-9-9-7-9--(7)-I
 E:-------------------------I
 I've got the blood of an innocent man all over me.

_[Repeat]

e:---------------------I
B:---------------------I
G:---------------------I
D:-7---7---9---7-9---7-I
A:-5---7---9---7-9---7-I
E:-----5---7---5-7---5-I
Like an innocent lamb, He was taken away. 
He never opened His mouth; He had nothin' to say.

e:-------------------I--------------------------I
B:-------------------I------------7-[Let Ring]--I
G:-9---11---7----9---I-9---11-x-----------------I
D:-9---11---9---10---I-9---11-x---9--9-7-9------I
A:-7----9---9---10---I-7----9-x---9--9-7-9------I
E:-------------------I--------------------------I
He just let them accuse Him.  He just let them abuse Him.  
And the people wouldn't stop 'till they saw Him die.  
_
 e:---------------------------I-------------------I
 B:--------------8-[Let Ring]-I------8-[Let Ring]-I
 G:-----------8---------------I-------------------I
 D:------8-10---10---10-8-10--I-8-9-10---10-8-10--I
 A:-8-10--------10---10-8-10--I-8-9-10---10-8-10--I
 E:---------------------------I-------------------I
 All over me. All over me.

 e:-------------------------------I
 B:---------------8-[Let Ring]----I
 G:--------11-10------------------I
 D:---10---11-10-10-10-8-10---(8)-I 
 A:----8----9--8-10-10-8-10---(8)-I
 E:-------------------------------I
 I've got the blood of an innocent man all over me.

_[Repeat]

e:-----------------------I
B:-----------------------I
G:-----------------------I
D:-8---8---10---8-10---8-I
A:-6---8---10---8-10---8-I
E:-----6----8---6--8---6-I
They nailed His hands and His feet to the wood.  
At the foot of His cross all His enemies stood. 

e:---------------------I---------------------------I
B:---------------------I--------------8-[Let Ring]-I
G:-10---12----8---10---I-10---12-x-----------------I
D:-10---12---10---11---I-10---12-x---10--10-8-10---I
A:--8---10---10---11---I--8---10-x---10--10-8-10---I
E:---------------------I---------------------------I
He said "Father, forgive them". He gave them all He could give them. 
Then He gave up His life and they watched Him die.  
_
 e:---------------------------I--------------------I
 B:--------------9-[Let Ring]-I-------9-[Let Ring]-I
 G:-----------9---------------I--------------------I
 D:------9-11---11---11-9-11--I-9-10-11---11-9-11--I
 A:-9-11--------11---11-9-11--I-9-10-11---11-9-11--I
 E:---------------------------I--------------------I
 All over me. All over me.

 e:-------------------------------I
 B:---------------9-[Let Ring]----I
 G:--------12-11------------------I
 D:---11---12-11-11-11-9-11---(9)-I 
 A:----9---10--9-11-11-9-11---(9)-I
 E:-------------------------------I
 I've got the blood of an innocent man all over me.

_[Repeat]

e:-----------------------I
B:-----------------------I
G:-----------------------I
D:-9---9---11---9-11---9-I
A:-7---9---11---9-11---9-I
E:-----7----9---7--9---7-I
They laid His body in a rich man's tomb.  
But He rose from the dead and He's comin' back soon.  

e:---------------------I---------------------------I
B:---------------------I--------------9-[Let Ring]-I
G:-11---13----9---11---I-11---13-x-----------------I
D:-11---13---11---12---I-11---13-x---11--11-9-11---I
A:--9---11---11---12---I--9---11-x---11--11-9-11---I
E:---------------------I---------------------------I
You can choose to believe it, you can choose recieve it, 
or you can choose to belive that He died over you.

e:------------------------------I---------------------I
B:----------------10-[Let Ring]-I-------10-[Let Ring]-I
G:-------------10---------------I---------------------I
D:-------10-12----12---12-10-12-I-10-11-12---12-10-12-I
A:-10-12----------12---12-10-12-I-10-11-12---12-10-12-I
E:------------------------------I---------------------I
All over me. Aaooaall over me.

e:----------------------------I
B:--------------10-[Let Ring]-I
G:--------13-12---------------I
D:---12---13-12-12-12-10-12---I
A:---10---11-10-12-12-10-12---I
E:----------------------------I
I've got the blood of an innocent man all over me.

e:------------------------------I---------------------I
B:----------------10-[Let Ring]-I-------10-[Let Ring]-I
G:-------------10---------------I---------------------I
D:-------10-12----12---12-10-12-I-10-11-12---12-10-12-I
A:-10-12----------12---12-10-12-I-10-11-12---12-10-12-I
E:------------------------------I---------------------I
All over me.      All over me.  

e:----------------------------I
B:--------------10-[Let Ring]-I
G:--------13-12---------------I
D:---12---13-12-12-12-10-12---I
A:---10---11-10-12-12-10-12---I
E:----------------------------I
I've got the blood of an innocent man all over me.

e:----------------------------I
B:--------------10-[Let Ring]-I
G:--------13-12---------------I
D:---12---13-12-12-12-10-12---I
A:---10---11-10-12-12-10-12---I
E:----------------------------I
I've got the blood of an innocent man all over me.

e:----------------10---I
B:---------------------I
G:--------13-12--------I
D:---12---13-12--------I
A:---10---11-10--------I
E:---------------------I
I've got the blood of an innocent maaan all ooooover me.

[Clean Tone]
e:-----------------------I---------------I
B:-----------------------I---------------I
G:---------7-------------I---------------I
D:-----7-9---9---9-7-9---I-7-8-9---9-7-9-I
A:-7-9-------------------I---------------I
E:-----------------------I---------------I

e:-----------------------I------x---I
B:-----------------------I------x---I
G:---------7-------------I------x---I
D:-----7-9---9---9-7-9---I-7---12---I
A:-7-9-------------------I-----12---I
E:-----------------------I-----10---I
     
Добавлено: 21.09.2013
Другие материалы по этой песне:
  • Аккорды и текст

Страница создана 18.05.2012
http://primanota.ru/petra/all-over-me-chords.htm
Привет, Гость.
Предлагаем пройти революционный курс по гитаре.
Подарок от PrimaNota.Ru, забирай!