PrimaNota.ru - самый крупный в мире бесплатный архив песенных текстов, аккордов, табулатур и нот


Петр Елфимов - Eyes That Never Lie - аккорды и текст, видео

Регистрация Запомнить меня
Войти через:  Facebook Google Twitter Vk Yandex Mail.ru

Петр Елфимов - Eyes That Never Lie - аккорды и текст, видео

Печатать
Просмотров: 166
Eyes That Never Lie
Петр Елфимов
E--------------------------------------------------------------
B------------------------------8---------8---8-----------------
G--10---9-10-9-7--7-9-10--10-9-7------10---10-9-7--------------
D------7-----------------------------------7------7---------10-
A--------------------------------------------------------------
E--------------------------------------------------------------

E-----------------------------------------------------------------------------------
B-----------------------------------------------11-9-8---8--13-13--13(b)--8-10-8----
G-----7-9-10-12-13---12---10-12-8---10--------10-------------------------------10-7-
D--10-----------------10---10-----------8-------------------------------------------
A-----------------------------------------------------------------------------------
E-----------------------------------------------------------------------------------

Dm
I was wandering alone
I was turning to stone
Gm
I was going insane
A#            A
When you came into my life

Dm
You chased sorrow away
You changed night into day
Gm
You cured all of my pain
A#            A
With your eyes that never lie

Dm    Am    A#
All my life I waited
Gm        A#       A       C
Thinking I would never fly
Fm          Cm          C#         G#
Then you looked and saw my wings
A#m        C#                 C
With your eyes that never lie

Dm
You are my desert and well
You are my heaven and hell
Gm
You are my reason to be
A#            A
My love song, my battle cry

Dm
I know I will be whole
While I keep in my soul
Gm
The light shining on me
A#            A
From your eyes that never lie

Dm    Am    A#
All my life I waited
Gm        A#       A       C
Thinking I would never fly
Fm          Cm          C#       G#
Then you looked and saw my wings
A#m        C#                 C
With your eyes that never lie

Dm    Am    A#
Oh, my darling angel
Gm        A#       A       C
Guide me through despair in the sky
Fm          Cm          C#         G#
If I'm lost I'll see the way
A#m        C#                 C
In your eyes that never lie
Добавлено: 26.12.2015
Другие материалы по этой песне:
  • Аккорды и текст

Страница создана 26.12.2015
http://primanota.ru/petr-elfimov/eyes-that-never-lie-chords.htm
Привет, Гость.
Предлагаем пройти революционный курс по гитаре.
Подарок от PrimaNota.Ru, забирай!