PrimaNota.ru - самый крупный в мире бесплатный архив песенных текстов, аккордов, табулатур и нот


PeterLicht - Heimkehrerlied - аккорды и текст, видео

Регистрация Запомнить меня
Войти через:  Facebook Google Twitter Vk Yandex Mail.ru

PeterLicht - Heimkehrerlied - аккорды и текст, видео

Печатать
Просмотров: 68
Heimkehrerlied
PeterLicht
-------------------------------------------------------------------------------
                             Heimkehrerlied - PeterLicht
-------------------------------------------------------------------------------
Tabbed by: orchi99
Email: /

Tuning:

e|------5-----------3---------------------1----------------------------------|
B|-----------------------------0---------------------------------------------|
G|---2---------------------------------2-------------------------------------|
D|3--------------2------------------3----------------------------------------|
A|------------3-------------2------------------------------------------------|
E|-----------------------3---------------------------------------------------|

                                G           

e|------5-----------3-----------3--------------------------------------------|
B|------------------------------0--------------------------------------------|
G|---2--------------------------0--------------------------------------------|
D|3--------------2--------------0--------------------------------------------|
A|------------3-----------------2--------------------------------------------|
E|------------------------------3--------------------------------------------|


    F          C
Der Sommer ist aus
       G           F
Und du faehrst nach Haus
                 F
Oder besser dran vorbei
C       G
Vorbei, vorbei

    F           C
Die Felder sind leer
    G                  F
Die Halme stehen nicht mehr
                     F
Ganz genau wie deine Leute
       C               G
Davon standen auch mal mehr als Heute

    F          C
Der Sommer ist aus
              G      F
Du packst die Koffer aus
                   F
Oder lieber wieder ein
    C         G
Lieber wieder ein

    F      C
Um Himmels Willen
             G        F
Wer hat dich hierher gebracht
                     F           C       G
In die Fremde deiner Waende

     F    C       G 
Der Sommer ist aus
     F    C       G
Der Sommer ist aus

            F         C
Sitzt jetzt hinten im Bus
                G           F
Knickst dir die Knie ins Gesicht
                          F        C        G
Suchst vergeblich nach Gesichtern

        F                 C
Und zu Haus da winkt ein Depp
            G      F
Aus deinem Haus heraus
                        F        C        G
Winkt genau mit deinem Winken

            F             C
Traegt deine Hemden, deine Hosen
            G              F
Schnibbelt hilflos an den Rosen
                       F        C      G
Winkt genau mit deinem Winken

              F                C
Wir haben uns irgendwo stehen gelassen
              G             F     
An fremden Straenden, fremden Strassen
               F         C         G
An Haefen und Trassen

        F            C   
Seitdem geistern wir umher
            G                  F 
In fremden Haenden, in fremden Waenden
                     F
Ganz genau wie meine Leute
       C                   G
Davon geisterten auch mal mehr als Heute

     F    C     G
Der Sommer ist aus
     F    C     G
Der Sommer ist aus
                     F       C
Doch ich moechte dich wieder sehen
         G        F     
In einem anderen Land
                 F             C     G
Verwunschen und wunschlos

                F     C  G
Ich moechte dich wieder sehen
     F  C   G
Dich wiedersehen

                      F          C       G
Ganz genau wie meine Leute

                 F           C
Und du merkst es geht wieder los
            G              F
Haeltst das Telefon in der Linken
                        F       C       G
Laesst es lieber wieder sinken

       F        C
Sitzt hinten im Bus
        G       F
Faehrst irgendwo hin
                         F         C    G
Laesst dich lieber wieder sinken

    F     C    G
Der Sommer ist aus
    F     C    G
Der Sommer ist aus
                      F     C
Doch ich moechte dich wiedersehen
         G       F
In einem anderen Land
                F        C       G
Verwunschen und wunschlos

                 F     C
Ich moechte dich wiedersehen
         G       F
In einem anderen Land
                     F      C     G
Ganz genau wie meine Leute

                 F  C  G
Ich moechte dich wiedersehen
     F   C  G
Dich wiedersehen

[Intro Tabs]
Ganz genau wie meine Leute
Ganz genau wie meine Leute
Добавлено: 25.03.2016
Другие материалы по этой песне:
  • Аккорды и текст

Страница создана 25.03.2016
http://primanota.ru/peterlicht/heimkehrerlied-chords.htm
Привет, Гость.
Предлагаем пройти революционный курс по гитаре.
Подарок от PrimaNota.Ru, забирай!