PrimaNota.ru - самый крупный в мире бесплатный архив песенных текстов, аккордов, табулатур и нот


Peter Peter - Homa - таба, видео

Регистрация Запомнить меня
Войти через:  Facebook Google Twitter Vk Yandex Mail.ru

Peter Peter - Homa - таба, видео

Печатать
Просмотров: 101
Artist: Peter Peter
Song: Homa 
Album: Single
Tuning: Standard
 
http://www.peterpeter.ca/nouvelles.php

Artist: Peter Peter
Song: Homa 
Album: Single
Tuning: Standard
 
Intro

Guitar 1

e |----------------------------------------------------------------|
B |----------------------------------------------------------------|
G |----------------------------------------------------------------|
D |-------6----6---6-----6----6---6-----7----7---7----8----8---8---|
A |----7-----7--------4-----4---------7----7---------8----8--------|    
E |--0-----0----0---0-----0-----0---7----7----7----8----8----8-----|

Guitar 2

e |----------------------------------------|
B |--3-3-3-3---0-0-0-0---------------------|
G |----------------------------------------|
D |--------------------7-7-7-7-------------|
A |------------------------------5-5-5-5---|    
E |----------------------------------------|

Verse 1 & 2

Guitar 1

e |----------------------------------------------------------------|
B |----------------------------------------------------------------|
G |----------------------------------------------------------------|
D |-------6----6---6-----6----6---6-----7----7---7----8----8---8---|
A |----7-----7--------4-----4---------7----7---------8----8--------|    
E |--0-----0----0---0-----0-----0---7----7----7----8----8----8-----|

Guitar 2

e |----------------------------------------|
B |--3-3-3-3---0-0-0-0---------------------|
G |----------------------------------------|
D |--------------------7-7-7-7-------------|
A |------------------------------5-5-5-5---|    
E |----------------------------------------|

Chorus

Guitar 1

e |----------------------------------------------------------------|
B |----------------------------------------------------------------|
G |----------------------------------------------------------------|
D |-------6----6---6-----9----9---9-----7----7---7----9----9---9---|
A |----7-----7--------9-----9---------7----7---------9----9--------|    
E |--0-----0----0---9-----9-----9---7----7----7----9----9----9-----|


Guitar 2

e |------------------------------------------|
B |------------------------------------------|
G |--7-7-7-7---2-2-2-2---0-0-0-0---2-2-2-2---|
D |------------------------------------------|
A |------------------------------------------|  
E |------------------------------------------|

Bridge

e |---------------------------------------------------|
B |---------------------------------------------------|
G |--7--7--7\3--3/5--5\2--2--2--3--3--2---2/--(x2)--7-|
D |---------------------------------------------------|
A |---------------------------------------------------|         
E |---------------------------------------------------|


Добавлено: 30.04.2012
Другие материалы по этой песне:
  • Аккорды и текст

Страница создана 30.04.2012
http://primanota.ru/peter-peter/homa-chords.htm
Привет, Гость.
Предлагаем пройти революционный курс по гитаре.
Подарок от PrimaNota.Ru, забирай!