PrimaNota.ru - самый крупный в мире бесплатный архив песенных текстов, аккордов, табулатур и нот


Peter, Paul & Mary - Asoalin - таба, видео

Регистрация Запомнить меня
Войти через:  Facebook Google Twitter Vk Yandex Mail.ru

Peter, Paul & Mary - Asoalin - таба, видео

Печатать
Просмотров: 78
Tab: Justin Schwantes
Album: Peter, Paul, and Mary in Concert
Artist: Peter, Paul, and Mary
Song: 'A'Soalin'

Here is a more complete Version with the guitar Part of the 2nd Guitar

                                                             'A'Soalin'
intro:

e-|-----0-----2-----3--2--0-----0-----2-----3--5--7----------|
B-|--0-----0-----0-----------0-----0-----0-------------------|
G-|----------------------------------------------------------|
D-|----------------------------------------------------------|
A-|----------------------------------------------------------|
E-|----------------------------------------------------------|

e-|-----0-----2-----3--2--0-----0-----2-----0-----0----------|
B-|--0-----0-----0-----------0-----0-----3-------------------|
G-|----------------------------------------------------------|
D-|----------------------------------------------------------|
A-|----------------------------------------------------------|
E-|----------------------------------------------------------|

e-|-----0-----2-----3--2--0-----0-----2------3--5--7---------|
B-|--0-----0-----0-----------0-----0-----0-------------------|
G-|----------------------------------------------------------|
D-|-----2-----0----------------------------------------------|
A-|-----------------3--2--3-----2-----0----------------------|
E-|------------------------------------------3--2--0---------|


e-|-----0-----2-----3--2--0-----0-----2-----0-----0----------|
B-|--0-----0-----0-----------0-----0-----3-------------------|
G-|----------------------------------------------------------|
D-|-----2-----0----------------------------------------------|
A-|-----------------3--2--3-----2-----0----------------------|
E-|-----------------------------------------3--2--0----------|

Now the second guitar comes in up the neck and Plays a finger picking
pattern used often by peter Paul and Mary it goes:
T;I;M;T;R;I  T;I;M;T;R;I...
R                R

e-|-7---------7----|-7----------7---|-7----------7---|-3--5--7--0-|
B-|------8---------|------8---------|------8---------|------------|
G-|----9--------9--|----9---------9-|----9---------9-|------------|
D-|-9-------9------|-9-------9------|-9-------9------|------------|
A-|----------------|----------------|----------------|------------|
E-|----------------|----------------|----------------|------------|

e-|-7----------7---|-------0--------|-7----------7----|-----0----|
B-|------8---------|-8--7----0------|------8----------|-8--7---0-|
G-|----9---------9-|----------------|----9----------9-|----------|
D-|-9-------9------|----------------|-9--------9------|----------|
A-|----------------|----------------|-----------------|----------|
E-|----------------|----------------|-----------------|----------|

e-|-0---------0----|-----------------|-0----0---0-----|-----------|
B-|------0---------|-0--------0------|----0--------0--|-0------0--|
G-|----0--------0--|-----------------|----------------|-----------|
D-|-2-------2------|-2--------2------|-2------2-------|-2---------|
A-|----------------|-----------------|----------------|-----------|
E-|----------------|-----------------|----------------|-----------|

e-|-0---------0----|-0---------0----|-0----2----2----|-0----------|
B-|------0---------|------0---------|---0---------0--|------------|
G-|----0--------0--|----0---------0-|----------------|------------|
D-|-2-------2------|-2--------2-----|-2-------2------|-2----------|
A-|----------------|----------------|----------------|------------|
E-|----------------|----------------|----------------|------------|

Now the first Verse would start and the first guitar also starts using
the same pattern but is still playing the Melody:
						T  I  M T   R I
e-|-----0----------2---|-3--2--0-|----0---------2---|--3--5--7-|
B-|--0-------0-------0-|---------|--0-------0-----0-|----------|
G-|--------0-----------|---------|--------0---------|----------|
D-|-----2-------0------|---------|------------------|----------|
A-|--------------------|-3--2--3-|----2-------0-----|----------|
E-|--------------------|---------|------------------|--3--2--0-|

e-|-----0----------2---|-3--2--0-|----0---------2---|--0-----0-|
B-|--0-------0-------0-|---------|--0-------0-----0-|----------|
G-|--------0-----------|---------|--------0---------|----------|
D-|-----2-------0------|---------|------------------|----------|
A-|--------------------|-3--2--3-|----2-------0-----|----------|
E-|--------------------|---------|------------------|--3--2--0-|

As far as I can Remember The first guitar only plays this in the verse
and plays the easy version in the chorus
During the Verses the Second guitar is playing:

e-|----0---------0----|----------|----0---------0----|----------|
B-|-0--------0--------|-0--------|-0--------0--------|-0--------|
G-|-------0--------0--|----------|-------0--------0--|----------|
D-|-----2-------2-----|-2--------|----2-------2------|-2--------|
A-|-------------------|----------|-------------------|----------|
E-|-------------------|----------|-------------------|----------|

During the Chorus it plays:

e-|----0---2----2----|-0-----------|-0-----2----2----|-0---------|
B-|-0----0---------0-|-------0-----|----0---------0--|------0----|
G-|------------------|---0-------0-|-----------------|---0-----0-|
D-|----2------2------|-2-----2-----|-2-------2-------|-2----2----|
A-|------------------|-------------|-----------------|-----------|
E-|------------------|-------------|-----------------|-----------|

During the 3rd Verse The second guitar Plays some Harmonics That I
haven't figured out.

And here is the proper ending:
Ending:
e-|-----0----------------------0-----2-----0-----0---------|
B-|--0-----3---1-----------0-----0-----3-------------------|
G-|---------------2---0------------------------------------|
D-|----------------------4---------------------------------|
A-|----------------------------2-----0---------------------|
E-|-----------------------------------------3--2--0--------|
     
Добавлено: 19.07.2013
Другие материалы по этой песне:
  • Аккорды и текст

Страница создана 19.07.2013
http://primanota.ru/peter-paul-and-mary/asoalin-chords.htm
Привет, Гость.
Предлагаем пройти революционный курс по гитаре.
Подарок от PrimaNota.Ru, забирай!