PrimaNota.ru - самый крупный в мире бесплатный архив песенных текстов, аккордов, табулатур и нот


Peter Pan Speedrock - Rockcity - таба, видео

Регистрация Запомнить меня
Войти через:  Facebook Google Twitter Vk Yandex Mail.ru

Peter Pan Speedrock - Rockcity - таба, видео

Печатать
Просмотров: 89
Riff A
E -------------------------------|
B -------------------------------|
G -------------------------------|
D -------------------------------|
A ------7--7--7--7--7--7---------|
E --0---------------------0h6b---|
Verse

E -------------------------|
B -------------------------|
G -------------------------|
D -------------------------|
A ----7--6--5--------------|
E -0-----------6--5--4--3--|
Bridge
E ------------------|---------------------|
B -5--5-----5---5---|---------------------|
G -7--7-----7---7---|---------------------|
D -7--7-----7---7---|-7--7----7--7--7--7--|
A -5--5-----5---5---|-7--7----7--7--7--7--|
E -5--5-----5---5---|-5--5----5--5--5--5--|
Chorus
E -----------------------------|
B -----------------------------|
G -----------------------------|
D -------------------7---7--7--|
A ------7--7--7--7-5-5---5--5--|
E --0--------------------------|
Solo?? I think it's something like a bend on G--7b..-- 
Bridge B
E -------------------------|--------------------------|
B -------------------------|--------------------------|
G -------------------------|--------------------------|
D -7--7--7--7--7--7--7-----|-7--7--7--7--7--7--7------|
A -7--7--7--7--7--7--7--7--|-7--7--7--7--7--7--7------|
E -5--5--5--5--5--5--5--0--|-5--5--5--5--5--5--5-6----|

E -------------------------|---playX3----solo---------|
B -------------------------|--------------------------|
G -------------------------|--------------------------|
D -------------------------|----7-----7-7-------------|
A --7-6-5------------------|----5-----5-5-------------|
E 0-------6----------------|--------------------------|


Any suggestions about solo, let me now
Добавлено: 10.04.2012
Другие материалы по этой песне:

Страница создана 10.04.2012
http://primanota.ru/peter-pan-speedrock/rockcity-chords.htm
Привет, Гость.
Предлагаем пройти революционный курс по гитаре.
Подарок от PrimaNota.Ru, забирай!