PrimaNota.ru - самый крупный в мире бесплатный архив песенных текстов, аккордов, табулатур и нот


Peter Pan Speedrock - Motrblock - таба

Регистрация Запомнить меня
Войти через:  Facebook Google Twitter Vk Yandex Mail.ru

Peter Pan Speedrock - Motrblock - таба

Печатать
Просмотров: 102
7b	= druk de snaar een klein beetje op/bend the string a little bit
~	= vibrato/vibration
~~	= veel vibrato/much vibration
\	= slide omlaag/slide down
/	= slide omhoog/slide up
x	= percussieslag/percussionstrike
0	= afdempen/mute strings
0	= licht afdempen/mute strings slightly
(2)	= wordt af en toe gespeeld/ is played sometimes
>7	= accent geven/give accent
*	= onduidelijk/unclear
R	= rust/rest

INTRO 

rode tablature: baspartij uitgeschreven voor gitaar (geen gitaar hier)
- met kleine variaties hierin de tweede keer/
red tabs: basspart, written out for guitar (no guitar here)
- with slight variations in here the second time
E -drums-------|-----------------|---------------------------|
B -vòòr -------|-----------------|---------------------------|
G -1e keer/----|-----------------|---------------------------|
D -drums-------|-----------------|---------------------------|
A -before------|-----------------|---------------------------|
E -1st time--3-|-0-00-00-0-00-00-|-12-12-121212-12-1212-1212-|

E ---------------------------|------------------------------|
B ---------------------------|------------------------------|
G ---------------------------|------------------------------|
D ---------------------------|------------------------------|
A ---------------------------|->5--->8--->10---->11->10->8--|
E -11-1111-1111-11-1111-1111-|->3--->6--->8----->9-->8-->6--|

RIFF A COUPLET/VERSE

E ----------------|----------------|----------------|---------------|
B ----------------|----------------|----------------|---------------|
G ----------------|----------------|----------------|---------------|
D ----------------|----------------|----------------|-------->3-->5-|
A -5-5-5-5>5>5--R-|-4-4-4-4>4>4--R-|-3-3-3-3>3>3--R-|-22-2--1>1-3>3-|
E -3-3-3-3>3>3--R-|-3-3-3-3>3>3--R-|-3-3-3-3>3>3--R-|-33-3----------|

RIFF B REFREIN/CHORUS

E ----------------|----------------|-------------------|----------------|
B ----------------|---(0)----------|-------------------|----------------|
G ----------------|---(0)----------|-------------------|----------------|
D ->8->8----------|--->3-----------|->5->5/7b--------\-|-5-5--5--5-5--/-|
A ->6->6----------|-3->1-----------|->3->3/5b--------\-|-3-3--3--3-3--/-|
E ----------------|-1--------------|-------------------|----------------|

E ----------------|----------------|-----------------|-----------------|
B ----------------|----------------|-----------------|-----------------|
G ----------------|----------------|-----------------|-----------------|
D -8-8-8--8--8-8--|-8\3-3--3--3-3/-|->7------>7------|->7-->7-->7-->7--|
A -5-6-6--6--6-6--|-6\1-1--1--1-1/-|->5------>5------|->5-->5-->5-->5--|
E ----------------|----------------|-----------------|-----------------|

TUSSENSTUK 1/INTERLUDE 1 

E --------------|-*0-0--0-0--00-00--0-0--0-0--00-00--0-0--0-0*-|
B -drums,-------|-*9-9--9-9--99-99--8-8--8-8--88-88--8-8--8-8*-|
G -geen gitaar/-|----------------------------------------------|
D -drums--------|----------------------------------------------|
A -no guitar----|----------------------------------------------|
E --------------|----------------------------------------------|

E ------------------------------|
B ------------------------------|
G ------------------------------|
D ------------------------------|
A ->5--->8--->10---->11->10->8--|
E ->3--->6--->8----->9-->8-->6--|

E -*0-0--0-0--00-00--0-0--0-0--00-00--0-0--0-0*-|------------------------------|
B -*9-9--9-9--99-99--8-8--8-8--88-88--8-8--8-8*-|------------------------------|
G ----------------------------------------------|------------------------------|
D ----------------------------------------------|------------------------------|
A ----------------------------------------------|->5--->8--->10---->11->10->8--|
E ----------------------------------------------|->3--->6--->8----->9-->8-->6--|

opmerking: bas speelt als intro/
note: bass plays like intro

TUSSENSTUK 2/INTERLUDE 2 

bas speelt alleen accenten/bass plays only accents:
E ---------------------|---------------------|---------------------|
B ---------------------|---------------------|---------------------|
G --0--0--0-0------3b--|--0--0--0-0------3b--|--0--0--0-0------3b--|
D --0--0------33-5-----|--0--0------33-5-----|--0--0------33-5-----|
A --x--x---------------|--x--x---------------|--x--x---------------|
E ->3->3---------------|->3->3---------------|->3->3---------------|

E --bas valt in/bass enters-----|------------------|
B ------------------------------|------------------|
G ------------------------------|--0--0-0------3b--|
D ------------------------------|--0------33-5-----|
A ->5--->8--->10---->11->10->8--|--x---------------|
E ->3--->6--->8----->9-->8-->6--|->3---------------|

E ---------------------|---------------------|
B ---------------------|---------------------|
G --0--0--0-0------3b--|--0--0--0-0------3b--|
D --0--0------33-5-----|--0--0------33-5-----|
A --x--x---------------|--x--x---------------|
E ->3->3---------------|->3->3---------------|

vervolg/continuation: 

speel acht keer/play eight times:

E ------------------------------|
B ------------------------------|
G ------------------------------|
D ------------------------------|
A ->5--->8--->10---->11->10->8--|
E ->3--->6--->8----->9-->8-->6--|

en dan/and then:

E --------------|--------------|--------------|--------------|-------------------|
B --------------|--------------|--------------|--------------|----0-R--geen------|
G ---------0-0--|---------0-0--|---------0-0--|---------0-0--|----0-R--drums/----|
D ----0-0--0-0--|----0-0--0-0--|----0-0--0-0--|----0-0--0-0--|----x-R--no--------|
A ----x-x--x-x--|----x-x--x-x--|----x-x--x-x--|----x-x--x-x--|----x-R--drums-----|
E -xx-3-3--3-3--|-xx-3-3--3-3--|-xx-3-3--3-3--|-xx-3-3--3-3--|-1/>3-~~-~~-~~-----|

EINDSTUK/ENDPART

bas en drums spelen alleen accenten/bass and drums play only accents:
E ---------------------|---------------------|---------------------|
B ---------------------|---------------------|---------------------|
G --0--0--0-0------3b--|--0--0--0-0------3b--|--0--0--0-0------3b--|
D --0--0------33-5-----|--0--0------33-5-----|--0--0------33-5-----|
A --x--x---------------|--x--x---------------|--x--x---------------|
E ->3->3---------------|->3->3---------------|->3->3---------------|

E --bas en drums vallen in------|------------------|
B ---bass and drums enters------|------------------|
G ------------------------------|--0--0-0------3b--|
D ------------------------------|--0------33-5-----|
A ->5--->8--->10---->11->10->8--|--x---------------|
E ->3--->6--->8----->9-->8-->6--|->3---------------|

E ---------------------|---------------------|
B ---------------------|---------------------|
G --0--0--0-0------3b--|--0--0--0-0------3b--|
D --0--0------33-5-----|--0--0------33-5-----|
A --x--x---------------|--x--x---------------|
E ->3->3---------------|->3->3---------------|

vervolg/continuation: 

speel acht keer/play eight times:

E ------------------------------|
B ------------------------------|
G ------------------------------|
D ------------------------------|
A ->5--->8--->10---->11->10->8--|
E ->3--->6--->8----->9-->8-->6--|

en dan (met bassolo)/and then (with basssolo):

E --------------|--------------|--------------|------------------|
B --------------|--------------|--------------|------------------|
G ---------0-0--|---------0-0--|---------0-0--|------------------|
D ----0-0--0-0--|----0-0--0-0--|----0-0--0-0--|----0--0--0-0-0-0-|
A ----x-x--x-x--|----x-x--x-x--|----x-x--x-x--|----x--x--x-x-x-x-|
E -xx-3-3--3-3--|-xx-3-3--3-3--|-xx-3-3--3-3--|-xx-3--3--3-3-3-3-|

E -------------------|--------------|
B ----drumroffel/----|--------------|
G ->0---drumfill-----|->4--R--------|
D ->0----------------|->x--R--------|
A ->x----------------|->x--R--------|
E ->3-~---~----------|->3--R--------|

Добавлено: 30.06.2012
Другие материалы по этой песне:
  • Аккорды и текст

Страница создана 30.06.2012
http://primanota.ru/peter-pan-speedrock/motrblock-chords.htm
Привет, Гость.
Предлагаем пройти революционный курс по гитаре.
Подарок от PrimaNota.Ru, забирай!