PrimaNota.ru - самый крупный в мире бесплатный архив песенных текстов, аккордов, табулатур и нот


Peter Murphy - Our Secret Garden - текст песни, таба, видео

Регистрация Запомнить меня
Войти через:  Facebook Google Twitter Vk Yandex Mail.ru

Peter Murphy - Our Secret Garden - текст песни, таба, видео

Печатать
Просмотров: 141
Уроки эстрадного вокала в Санкт-Петербурге
-------------------------------------------------------------------------------
                      Our Secret Garden - Peter Murphy
-------------------------------------------------------------------------------
Tabbed by: Myself
Email: cpochie92@gmail.com

Tuning: Standard


Verse Chords and Riff

Each chord gets two measures; palm mute with delay effect to get the album sound.

             Emaj7                       Emaj7
e|--------------------------|--------------------------|
B|--------------------------|--------------------------|
G|--------1--------1--------|--------1--------1--------|
D|-----0--------0--------0--|-----0--------0--------0--|
A|--2--------2--------2-----|--2--------2--------2-----|
E|--------------------------|--------------------------|

             E                            E
e|--------------------------|--------------------------|
B|--------------------------|--------------------------|
G|--------1--------1--------|--------1--------1--------|
D|-----2--------2--------2--|-----2--------2--------2--|
A|--2--------2--------2-----|--2--------2--------2-----|
E|--------------------------|--------------------------|

Muted riff:

This is played when the drums and bass come in at the beginning of the song. Palm mute 
to achieve the desired sound.


e|--------------|-----------------|
B|-----3--5--6--|--5--6--6--5--3--|
G|--4-----------|-----------------|
D|--------------|-----------------|
A|--------------|-----------------|
E|--------------|-----------------|

Alternate Verse Chords and Riff:

The song doesn't have a conventional chorus; this is the chord change from the initial 
verse, and also functions as the outro.

            Amaj9                     Amaj9
e|--------------------------|--------------------------|
B|--------------------------|--------------------------|
G|--------1--------1--------|--------1--------1--------|
D|-----2--------2--------2--|-----2--------2--------2--|
A|--0--------0--------0-----|--0--------0--------0-----|
E|--------------------------|--------------------------|

            B7sus4                     Bsus4
e|--------------------------|--------------------------|
B|--------------------------|--------------------------|
G|--------2--------2--------|--------4--------4--------|
D|-----4--------4--------4--|-----4--------4--------4--|
A|--2--------2--------2-----|--2--------2--------2-----|
E|--------------------------|--------------------------|
Добавлено: 29.11.2013
Другие материалы по этой песне:
  • Аккорды и текст

Страница создана 01.05.2012
http://primanota.ru/peter-murphy/our-secret-garden-chords.htm
Привет, Гость.
Предлагаем пройти революционный курс по гитаре.
Подарок от PrimaNota.Ru, забирай!