PrimaNota.ru - самый крупный в мире бесплатный архив песенных текстов, аккордов, табулатур и нот


Peter Kernel - Ill Die Rich At Your Funeral - таба, видео

Регистрация Запомнить меня
Войти через:  Facebook Google Twitter Vk Yandex Mail.ru

Peter Kernel - Ill Die Rich At Your Funeral - таба, видео

Печатать
Просмотров: 94
I'll die rich at your funeral
PETER KERNEL
(http://www.peterkernel.com/)


tab by  mon.nom.est.thomas.martin@gmail.com


e|------------------------------------------------|
b|------------------------------------------------|
g|------------------------------------------------|
d|---10-9-7--10-9-7--10-9----10-9----10-9---------|
a|------------------------10------10------10-10---|
e|------------------------------------------------|

I am
On my way
Im not okay
My heart hurts
Cry then
Money kills
Throw out my pills
My heart hurts

e|---------------------------------------------|
b|---------------------------------------------|
g|---999------------------999--999--999--999---|
d|---xxx--999--777---777--xxx--xxx--xxx--xxx---|
a|---777--xxx--xxx---xxx--777--777--777--777---|
e|---000--787--555---000--000--000--000--000---|

e|---------------------------------------------|
b|---------------------------------------------|
g|---999---------------------------------------|
d|---xxx--999--777---777--999--999--999--999---|
a|---777--xxx--xxx---xxx--777--777--777--777---|
e|---000--787--555---000--000--000--000--000---|


I am
On my way
Im not okay
My heart hurts
I will
Dress my best
My blackest vest
My heart hurts
e|--------------------------------------------|
b|---0-----0-----0----------0-----0-----0-----|
g|---9-----9-----9----------9-----9-----9-----|
d|--10-----9-----7---------10-----9-----7-----|
a|---0-----0-----0----------0-----0-----0-----|
e|--------------------------------------------|


Im short
Im fat
Im sad
Upset
But i'm rich
e|-------------------------------------|
b|---0-0-0-0-0-0-0-0-------------------|
g|---9-9-9-9-9-9-9-9-0-0-0-0-0-0-0-0---|
d|--1010101010101010-9-9-9-9-9-9-9-9---|
a|---0-0-0-0-0-0-0-01010101010101010---|
e|-------------------------------------|


e|-----------------------------------------|
b|---5-5-5-5-5-5---0-----5-5-5-5-5-5---3---|
g|---4-4-4-4-4-4---4-----4-4-4-4-4-4---4---|
d|---2-2-2-3-2-2---x-----2-2-2-3-2-2---0---|
a|-------------3---2---------------3---x---|
e|-------------------------------------3---|

e|-------------------------------------------------------|
b|-------------------------------------------------------|
g|-------------------------------------------------------|
d|---10-910-910-910--9109-9-----10-910-910-910--9109-9---|
a|----0-0-0-0-0-0-0--0-0010------0-0-0-0-0-0-0--0-0010---|
e|-------------------------------------------------------|
Ill bet the moneys not on you
Hold it up
Drink it up
Make it up
I  bleed you
I was the finest part of you
Hold it up
Give it up
Dream it up
I bleed you


e|-------------------------------------------------------|
b|-------------------------------------------------------|
g|-------------------------------------------------------|
d|-------------------------------------------------------|
a|---0-0-0-0-0-0-0-0-0-0-0-0-0-0-0-0-0-0-0-0-0-0-0-0-0---|
e|-------------------------------------------------------|

e|----------------------------------------|
b|----------------------------------------|
g|----------------------------------------|
d|---------23-3-3-3-32--------0-0-0-000---|
a|---0-0-03-----------32-2-223------------|
e|----------------------------------------|

e|--------------------------------------------|
b|--------------------------------------------|
g|--------------------------------------------|
d|---------23-3-3-3-32--------0--023--20------|
a|---0-0-03-----------32-2-223------------0---|
e|--------------------------------------------|

If youre here
thats cause I want you
here

e|----------------------------------------------|
b|----------------------------------------------|
g|----------------------------------------------|
d|----10-10-10-10-10-10-10-10-9-9-9-9-9-9-9-9---|
a|---0--0--0--0--0--0--0--0--0-0-0-0-0-0-0-0----|
e|----------------------------------------------|

Im short
Im fat
Im sad
Upset
But i'm rich
Ill bet the moneys not on you
Hold it up
Drink it up
Make it up
I  bleed you
I was the finest part of you

e|-----------------------------------------|
b|-----------------------------------------|
g|-----------------------------------------|
d|---10-9-7-10-9-7-10-9-910-9-9-10-9-9-9---|
a|----0-0-0--0-0-0--0-010101010-10101010---|
e|----------------------0-0-0-0--0-0-0-0---|
Добавлено: 16.03.2012
Вам также может быть интересно:
Другие материалы по этой песне:
  • Аккорды и текст

Страница создана 16.03.2012
http://primanota.ru/peter-kernel/ill-die-rich-at-your-funeral-chords.htm
Привет, Гость.
Предлагаем пройти революционный курс по гитаре.
Подарок от PrimaNota.Ru, забирай!