PrimaNota.ru - самый крупный в мире бесплатный архив песенных текстов, аккордов, табулатур и нот


Peter Katz - Carried Away - таба, видео

Регистрация Запомнить меня
Войти через:  Facebook Google Twitter Vk Yandex Mail.ru

Peter Katz - Carried Away - таба, видео

Печатать
Просмотров: 102
Уроки эстрадного вокала в Санкт-Петербурге
Link to PeterKatz: http://www.peterkatz.com
Tabbed By: Cory Bildfell
E-mail: cory.bildfell123@gmail.com
Tuning: D A D F# A D

Introduction
d  |----------------------------------------------------------------------------------|
A  |----------------------------------------------------------------------------------|
D  |----------8-----------------10----------------12-------------------12-------------|
F# |----------------0------------------0--------------------0--------------------0----|
A  |----------------------------------------------------------------------------------|
D  |----9-9-----9-------11--11------11-----12--12-----12--------12--12------12--------|

d  |----------------------------------------------------------------------------------|
A  |----------------------------------------------------------------------------------|
D  |---------8----------------3------------5-------------5----------------------------|
F# |---------------0--------0---0---------------0-------------0-----------------------|
A  |----------------------------------------------------------------------------------|
D  |----9-9----9-------0h4----------5--5----5------5-5----5---------------------------|

d  |----------------------------------------------------------------------------------|
A  | ---------------------------------------------------------------------------------|
D  | ---------8-----------------10-----------------12---------------------3-----------|
F# |----------------0--------------------0------------------0-----------0---0---------|
A  | ---------------------------------------------------------------------------------|
D  | ---9-9-----9-------11--11-------11------12--12-----12--------0h4-----------------|

d  | ---------------------------------------------------------------------------------|
A  | ---------------------------------------------------------------------------------|
D  | -----5------------5---------5------------3---------------------------------------|
F# | -----------0---------0------------0-----------0----------------------------------|
A  | ---------------------------------------------------------------------------------|
D  | 5-5----5-----5-5---5----5-5----5-----5-5---5-------------------------------------|


Bridge
Bridge
d  |---------------------------------------------|---|------------|----------------------|
A  |---------------------------------------------|---|------------|----------------------|
D  |--------8-----------7----------5--------5----|---|-----5-----|-----------------------|
F# |------------0-----------0----------0-------0-|x3-|---------0-|x3---------------------|
A  |---------------------------------------------|---|------------|----------------------|
D  |---9-9----9-----7-7---7----5-5---5---5-5--5-|---|-5-5---5----|-----------------------|

        F#m     G
d  |--0-----0-------------------------------------------------------------------------|
A  |--0-----0-------------------------------------------------------------------------|
D  |--3-----5-------------------------------------------------------------------------|
F# |--0-----0-------------------------------------------------------------------------|
A  |--x-----x-------------------------------------------------------------------------|
D  |--4-----5-------------------------------------------------------------------------|
Добавлено: 15.10.2013
Другие материалы по этой песне:
  • Аккорды и текст

Страница создана 15.10.2013
http://primanota.ru/peter-katz/carried-away-chords.htm
Привет, Гость.
Предлагаем пройти революционный курс по гитаре.
Подарок от PrimaNota.Ru, забирай!