PrimaNota.ru - самый крупный в мире бесплатный архив песенных текстов, аккордов, табулатур и нот


Peter Jback - Jul Jul Strålande Jul - таба, видео

Регистрация Запомнить меня
Войти через:  Facebook Google Twitter Vk Yandex Mail.ru

Peter Jback - Jul Jul Strålande Jul - таба, видео

Печатать
Просмотров: 94
Уроки эстрадного вокала в Санкт-Петербурге
-------------------------------------------------------------------------------
                             Jul Jul Strålande Jul - Peter Jöback
-------------------------------------------------------------------------------
Tabbed by: LillaMartin
E-mail: RasmusSture@hotmail.se

Tuning: Standard

Då mitt gehör inte är att lita på och det är så sjukt många ackordbyten och 
bastoner som ändras i denna låten så kommer jag inte ta ut hela denna låten 
utan bara introt. Jag tycker det är otroligt fint arrangemang låten ut.
Behöver ni en tutorial så hojta till men lättast är nog bara att lyssna på 
låten och titta på tabben på samma gång så hajar ni hur den går! 


e|---------7---------------------7------8-------10--------------------7------|
B|----------------------10---------------------------------10----------------|
G|------7-----------8----------7------8------10---------8-----------7--------|
D|--3/5-------7/10----------5------7------9---------10-----------5-----------|
A|---------------------------------------------------------------------------|
E|---------------------------------------------------------------------------|

e|--------8---------10----------10--------8------5---------------------------|
B|------------------------------------8---------7-----8--7--8----------------|
G|-----8--------10-----------9-----------------7------------7----------------|
D|--7---------9----------10---------------------------------9----------------|
A|---------------------------------------------------------------------------|
E|---------------------------------------------------------------------------|

************************************

| /   slide up
| \   slide down
| h   hammer-on
| p   pull-off
| ~   vibrato
| +   harmonic
| x   Mute note
| b   Bend
| pb  Pre-bend
| br  Bend release
| pbr Pre-bend release
| brb Bend release bend

************************************
Добавлено: 27.02.2016
Другие материалы по этой песне:
  • Аккорды и текст

Страница создана 27.02.2016
http://primanota.ru/peter-jback/jul-jul-stralande-jul-chords.htm
Привет, Гость.
Предлагаем пройти революционный курс по гитаре.
Подарок от PrimaNota.Ru, забирай!