PrimaNota.ru - самый крупный в мире бесплатный архив песенных текстов, аккордов, табулатур и нот


Peter Furler Band - Dare I Say - таба, видео

Регистрация Запомнить меня
Войти через:  Facebook Google Twitter Vk Yandex Mail.ru

Peter Furler Band - Dare I Say - таба, видео

Печатать
Просмотров: 78
Dare I Say 
by Peter Furler Band 

Contact me at: 
joshua1vs89@icloud.com 

Verses:

e|-------------------------| 
B|-------------------------| 
G|-------------------------| 
D|---5/7--5/7--7\5/7\5-5---| 
A|---3/5--3/5--5\3/5\3-3---| 
E|-------------------------| 

e|-------------------------| 
B|-------------------------| 
G|-------------------------| 
D|---0h5-5-0h5-5-0-5/7-7---| 
A|---0h3-3-0h3-3-0-3/5-5---| 
E|-------------------------| 

I use an overdrive pedal and
my guitar's volume knob is at 2
for the verses.   

Chorus:  

     Dm 
e|---5---|
B|---6---|
G|---7---|
D|---7---| 
A|---5---|
E|---5---|
    (I know...)

       Bb
e|-----6---| 
B|-----6---| 
G|-----7---| 
D|-----8---| 
A|-----8---|
E|-----6---|
(On my back...)

           C
e|---------8----| 
B|---------8----| 
G|---------9----|
D|---------10---|
A|---------10---| 
E|---------8----~
(Ready to attack...)

Bridge:

    Am
e|---5---| 
B|---5---| 
G|---5---| 
D|---7---| 
A|---7---|
E|---5---|
    (My, my...)

              G
e|------------3---| 
B|------------3---| 
G|------------4---| 
D|------------5---| 
A|------------5---| 
E|------------3---|
(Inconvenient lie...)

     F
e|---1---| 
B|---1---| 
G|---2---| 
D|---3---| 
A|---3---| 
E|---1---|
(Used to be so right...)

These are the melodies that
can be heard over the chords
in the bridge:

e|----------------| 
B|---5-6---5-6----| 
G|------5-----5---| 
D|----------------| 
A|----------------| 
E|----------------| 
(Used to be so right...) 

e|------------8---| 
B|---5-6---5-6----| 
G|------5---------| 
D|----------------| 
A|----------------| 
E|----------------| 
(You're standing in my light...)

At the beginning of the last 
chorus you will notice 
a guitar melody: 

e|-------------| 
B|--------15---| 
G|---14-17-----| 3x 
D|-------------| 
A|-------------| 
E|-------------| 
(I know...)

e|-------------| 
B|-----15------| 
G|---14--17----| 1x 
D|-------------| 
A|-------------| 
E|-------------| 
(Something that you lack...)

Complete lyrics:

Dare I say you been guessin' 
A few things wrong 
Dare I say you been playin' 
Your hand too strong 
Dare I say you get bolder 
When the coast is clear 
Dare I say you got some nerve 
To hang out here 
 
I know 
There's a target on my back
And you're ready to attack
But there's something that you lack
You're gonna miss me 
I know  
You got nothing up your sleeve
So go back to where you came      
It don't matter where you aim 
You're gonna miss me 

Dare I say all your tunes 
Have a hollow ring 
Dare I say you can't sell 'em 
If the bird don't sing 
Dare I ask whatcha doin' 
On a horse that high? 
Kicking dust 
Sniffin' out another best buy 
 
I know                        
There's a target on my back        
And you're ready to attack        
But there's something that you lack
You're gonna miss me 
I know  
You got nothing up your sleeve
So go back to where you came
It don't matter where you aim 
You're gonna miss me 

My, my                     
What an inconvenient lie
You used to be so right 
Hey, hey 
You'd best be on your way 
You're standing in my light 


Dare I ask what exactly
It is you do? 
I'm familiar with the hell 
You want to put me through 

I know                      
There's a target on my back
And you're ready to attack        
But there's something that you lack
You're gonna miss me 
I know  
You got nothing up your sleeve
So go back to where you came
It don't matter where you aim 
You're gonna miss me 

Dare I say you been guessin' 
A few things wrong 
Dare I say you been playin' 
Your hand too strong 
Do you think I don't see 
Through your lame disguise? 
Every time your lips move 
I know they're telling lies


| /   slide up
| \   slide down
| h   hammer-on
| p   pull-off
| ~   vibrato
| +   harmonic
| x   Mute note
| b   Bend
| pb  Pre-bend
| br  Bend release
| pbr Pre-bend release
| brb Bend release bend
Добавлено: 18.11.2015
Другие материалы по этой песне:
  • Аккорды и текст

Страница создана 18.11.2015
http://primanota.ru/peter-furler-band/dare-i-say-chords.htm
Привет, Гость.
Предлагаем пройти революционный курс по гитаре.
Подарок от PrimaNota.Ru, забирай!