PrimaNota.ru - самый крупный в мире бесплатный архив песенных текстов, аккордов, табулатур и нот


Peter Frampton - Wind Of Change - текст песни, таба, видео

Регистрация Запомнить меня
Войти через:  Facebook Google Twitter Vk Yandex Mail.ru

Peter Frampton - Wind Of Change - текст песни, таба, видео

Печатать
Просмотров: 236
Уроки эстрадного вокала в Санкт-Петербурге
Авторы музыки: Peter Frampton
Авторы текста: Peter Frampton
The tuning (from 6th string to 1st)is DADF#AF#, but since you might break your first 
(you have to go from E to F#)
I'll go 1 full step down....

CGCEGE with CAPO ON 2ND FRET

* strum

INTRO:

E|--0-0-0-0--0-0-----5-3-1-0--------|     ---12+----|
G|--5-4-2-4~-4-2-----5-4-2-0--------|     ---12+----|
E|--0-0-0-0--0-0-----0-0-0-0--------| 2x  ---12+----|
C|--0-0-0-0--0-0-----0-0-0-0--------|     ---12+----|
G|--0-0-0-0--0-0-----x-x-x-0--------|     ---12+----|
C|--0-0-0-0--0-0-----5-4-2-0--------|     ---12+----|


VERSE:
   *                        *                      *
E|-7------------------------5----------------------7-------|
G|-0------------------------0----------------------7-------|
E|-0------------------------0----------------------7-------|
C|-0------------------------0----------------------7-------|
G|-x------------------------x----------------------7-------|
C|-9------------------------7----------------------7-------|
     The sweetest fragrance   it brings a wind of change

   *                            *         *      *
E|-5----------------------5-3-1-3---1--10/12--10-8-----------|
G|-5----------------------5-4-2-4---2--10/12--10-9-----------|
E|-5----------------------0-0-0-0---0--0------0--0-----------|
C|-5----------------------0-0-0-0---0--0------0--0-----------|
G|-5----------------------x-x-x-x---x--0------0--0-----------|
C|-5----------------------5-4-2-4---2--0------0--0-----------|
      I feel it's now or die

   *                        *                      *
E|-7------------------------5----------------------7-------|
G|-0------------------------0----------------------7-------|
E|-0------------------------0----------------------7-------|
C|-0------------------------0----------------------7-------|
G|-x------------------------x----------------------7-------|
C|-9------------------------7----------------------7-------|
     I have itchy fingers     and butterflies a strange

    * *           * *                *     *
e|--6-5-----------6-5----------------8-----10--------|
G|--7-5-----------7-5----------------8-----10--------|
E|--8-5-----------8-5----------------8-----10--------|
C|--5-5-----------5-5----------------8-----10--------|
G|--5-5-----------5-5----------------8-----10--------|
C|--5-5-----------5-5----------------8-----10--------|
        you know      that I live a lie


CHORUS:
             *
E|---5--3--1-3---1---|
G|---5--4--2-4---2---|
E|---0--0--0-0---0---|
C|---0--0--0-0---0---|
G|---x--x--x-x---x---|
C|---5--4--2-4---2---|
   take me away
             *
E|---5--3--1-3---1---|
G|---5--4--2-4---2---|
E|---0--0--0-0---0---|
C|---0--0--0-0---0---|
G|---x--x--x-x---x---|
C|---5--4--2-4---2---|
   take me away

             *           *
E|---5--3--1-3-----1-----0------|        --12+--|
G|---5--4--2-4-----2-----0------|        --12+--|
E|---0--0--0-0-----0-----0------| repeat --12+--|
C|---0--0--0-0-----0-----0------|        --12+--|
G|---x--x--x-x-----x-----0------|        --12+--|
C|---5--4--2-4-----0-----0------|        --12+--|
   faking my way       through

2ND VERSE: it's basically the same, with some minor changes:

              (777777)  (777777-666666-555555)
...to buy me happiness                       diamonds don't demand me...

              (678555-555555) (555555-777777-888888)
....God knows                    there's some much to give....

2ND CHORUS:

             *
E|---5--3--1-3---1---|
G|---5--4--2-4---2---|
E|---0--0--0-0---0---|
C|---0--0--0-0---0---|
G|---x--x--x-x---x---|
C|---5--4--2-4---2---|
   take me away
             *
E|---5--3--1-3---1---|
G|---5--4--2-4---2---|
E|---0--0--0-0---0---|
C|---0--0--0-0---0---|
G|---x--x--x-x---x---|
C|---5--4--2-4---2---|
   take me away

             *
E|---5--3--1-3-----1-----------------------------|
G|---5--4--2-4-----2-----------------------------|
E|---0--0--0-0-----0-----------------------------|
C|---0--0--0-0-----0-----------0--4--5--6--7--9--|
G|---x--x--x-x-----x-----------0--4--5--6--7--9--|
C|---5--4--2-4-----0-----------0--4--5--6--7--9--|
   faking my way       through

             *
E|---5--3--1-3---1---|
G|---5--4--2-4---2---|
E|---0--0--0-0---0---|
C|---0--0--0-0---0---|
G|---x--x--x-x---x---|
C|---5--4--2-4---2---|
   take me away
             *
E|---5--3--1-3---1---|
G|---5--4--2-4---2---|
E|---0--0--0-0---0---|
C|---0--0--0-0---0---|
G|---x--x--x-x---x---|
C|---5--4--2-4---2---|
   take me away

             *             *
E|---5--3--1-3-----1-------3------|
G|---5--4--2-4-----2-------5------|
E|---0--0--0-0-----0-------3------|
C|---0--0--0-0-----0-------3------|
G|---x--x--x-x-----x-------3------|
C|---5--4--2-4-----0-------3------|
   faking my way       through

             *            *
E|---5--3--1-0------------3-------|
G|---5--4--2-0------------3-------|
E|---0--0--0-0------------3-------|
C|---0--0--0-0------------3-------|
G|---x--x--x-0------------3-------|
C|---5--4--2-0------------3-------|
    La  da dada    like I do

                          *     *     *      *
E|---5--3--1-0------------5-----7-----3------5----|
G|---5--4--2-0------------5-----7-----3------5----|
E|---0--0--0-0------------5-----7-----3------5----|
C|---0--0--0-0------------5-----7-----3------5----|
G|---x--x--x-0------------5-----7-----3------5----|
C|---5--4--2-0------------5-----7-----3------5----|
    La  da dada    'cause all I do    is for you

          *     *     *      *
E|--------5-----7-----3------5--------------------|
G|--------5-----7-----3------5--------------------|
E|--------5-----7-----3------5--------------------|
C|--------5-----7-----3------5--------------------|
G|--------5-----7-----3------5--------------------|
C|--------5-----7-----3------5--------------------|
          all I do    is for you...you ..you and you..

E|--0-0-0-0--0-0-----5-3-1-0--------|
G|--5-4-2-4~-4-2-----5-4-2-0--------|
E|--0-0-0-0--0-0-----0-0-0-0--------|
C|--0-0-0-0--0-0-----0-0-0-0--------|
G|--0-0-0-0--0-0-----x-x-x-0--------|
C|--0-0-0-0--0-0-----5-4-2-0--------|
   da da da da da
Добавлено: 21.02.2012
Другие материалы по этой песне:
  • Аккорды и текст

Страница создана 21.02.2012
http://primanota.ru/peter-frampton/wind-of-change-chords.htm
Привет, Гость.
Предлагаем пройти революционный курс по гитаре.
Подарок от PrimaNota.Ru, забирай!