PrimaNota.ru - самый крупный в мире бесплатный архив песенных текстов, аккордов, табулатур и нот


Peter Frampton - While My Guitar Gently Weeps - текст песни, таба, видео

Регистрация Запомнить меня
Войти через:  Facebook Google Twitter Vk Yandex Mail.ru

Peter Frampton - While My Guitar Gently Weeps - текст песни, таба, видео

Печатать
Просмотров: 196
Авторы музыки: George Harrison
Авторы текста: George Harrison
I used standard tuning and listened by ear Im no expert so this is only part right there 
things that I am missing so please let me know. If you think it is different, I just 
to post this cause no one else has. Also this song has many breaks so you'll have to listen to it.
Email me at Chad81Hanley@yahoo.com or find my profile and leave me a

comment. ENJOY!

e:----------------------------------------------------------------------|
B:----------------------------------------------------------------------|
G:7---7-7-7-6p5--7-7-7-6p5h8-4h5p4/2------------------------------------|
D:7-7-7-7-7------7-7-7----------------3p2p0--2--------------------------|
A:-----------------------------------------------2-----------3----------|
E:-------------------------------------------------3p2p0----------------|


e:7-9-10-9-7-12-12p10p9------------------------------------------------|
B:----------------------12-10-9-9B-7----------2~~~~~~~~2-1-0-2-3-3-5---|
G:-----------------------------------9-7-5-----------------------------|
D:---------------------------------------------------------------------|
A:---------------------------------------------------------------------|
E:---------------------------------------------------------------------|

e:-----------------------------------------------|
B:-5h7p5-4h5-------------------------------------|
G:-----------------------------------------------|
D:----------------------------2h3h5--------------|
A:------------3--------2h3h5--------5p3p2--------|
E:-----------------3-5--------------------3-0----|

e:---------------------------------------------------|
B:---------------------------------------------------|
G:0-2-3-0-5~~~5/7-5---3-5-7--5-7-8---7-5-7---5-3-0---|
D:---------------------------------------------------|
A:---------------------------------------------------|
E:---------------------------------------------------|

e:-------------5-55-55-55-55-55-55-5555-55-5-55-55-7-8-10--|
B:-------0-------------------------------------------------|
G:-----0---------------------------------------------------|
D:---2-----------------------------------------------------|
A:--3------------------------------------------------------|
E:-0-------------------------------------------------------|

e:-8-10-12-7---------7---------7-------------------------|
B:-----------7-9-------7-9-------7-----------------------|
G-----------------------------------7-9-9/10-9-7---------|
D:-------------------------------------------------------|
A:-------------------------------------------------------|
E:-------------------------------------------------------|
Добавлено: 19.04.2012
Вам также может быть интересно:
Другие материалы по этой песне:
  • Аккорды и текст

Страница создана 22.03.2012
http://primanota.ru/peter-frampton/while-my-guitar-gently-weeps-chords.htm
Привет, Гость.
Предлагаем пройти революционный курс по гитаре.
Подарок от PrimaNota.Ru, забирай!