PrimaNota.ru - самый крупный в мире бесплатный архив песенных текстов, аккордов, табулатур и нот


Peter Frampton - Signed Sealed Delivered Im Yours - текст песни, таба, видео

Регистрация Запомнить меня
Войти через:  Facebook Google Twitter Vk Yandex Mail.ru

Peter Frampton - Signed Sealed Delivered Im Yours - текст песни, таба, видео

Печатать
Просмотров: 124
----------------------------------------------------------------------------
                             Signed, Sealed, Delivered – Peter Frampton
----------------------------------------------------------------------------
Tabbed by: evhspence999
Email: evhspence999@aim.com

Tuning: standard

   Fade in
e|--------------12--12-12-12—b15r14-12-14-12---12-12----12-15-15-14h15p14p12--|
B|------------------------------------------14-------14-----------------------|
G|--(9)--9-9-9~---9-----------------------------------------------------------|
D|----------------------------------------------------------------------------|
A|----------------------------------------------------------------------------|
E|----------------------------------------------------------------------------|

e|---12---12-12---12----------------------------------------------------------|
B|14---15------15-----15-14h15p14p12---12-----12------------------------------|
G|-----------------------------------14--14-12--12-11-9----------9------------|
D|------------------------------------------------------11-9h11p -------------|
A|----------------------------------------------------------------------------|
E|----------------------------------------------------------------------------|

e|----------------------------------------------------------------------------|
B|-----------12-14-14b(15)-p12---12------------------8888888889~--------------|
G|--12h13h14------------------14---14p12------------7777777779~---------------|
D|---------------------------------------14-14-14~----------------------------|
A|----------------------------------------------------------------------------|
E|----------------------------------------------------------------------------|

e|----17--17-17-17--17--151515151515-141414141414-12121212121212121212--------|
B|---14-14-14-14--14---121212121212--111111111111-9-9-9-9--9-9-9-9-9-9--------|
G-----------------------------------------------------------------------------|
D|----------------------------------------------------------------------------|
A|----------------------------------------------------------------------------|
E|----------------------------------------------------------------------------|

e|-1010101010--9-9-9-9-9--7-7-7-7-7----12121212121212-15151515151515151516----|
B|-7-7-7-7-7---6-6-6-6-6--4-4-4-4-4----9-9-9-9-9-9-9--12121212121212121213----|
G|----------------------------------------------------------------------------|
D|----------------------------------------------------------------------------|
A|----------------------------------------------------------------------------|
E|----------------------------------------------------------------------------|

e|-15151515151515151516------------------12-16-19-19b(22)-19-17-19~-17h19------|
B|-12121212121212121213--------/14-12-14---------------------------------------|
G|-----------------------------------------------------------------------------|
D|-----------------------------------------------------------------------------|
A|-----------------------------------------------------------------------------|
E|-----------------------------------------------------------------------------|

e|-16h17-14h16-12h14p12~12~----12----12----12-----12----12----12------12------|
B|------------------------12h14—12h14—12h14—12h14—12h14—12h14—12h14—12h14-----|
G|----------------------------------------------------------------------------|
D|----------------------------------------------------------------------------|
A|----------------------------------------------------------------------------|
E|----------------------------------------------------------------------------|

  Solo exit (here I am baby...)
e|-----------------------------------------------------------------------------|
B|-----------------------------------------------------------------------------|
G|-----------------13~14p13-14p(13)-14~------14/15-----------------------------|
D|-----------------------------------------------------------------------------|
A|-----------------------------------------------------------------------------|
E|-----------------------------------------------------------------------------|


| /  slide up
| \  slide down
| h  hammer-on
| p  pull-off
| ~  vibrato
| +  harmonic
| x  Mute note
=============================================================
Добавлено: 28.03.2012
Другие материалы по этой песне:
  • Аккорды и текст

Страница создана 28.03.2012
http://primanota.ru/peter-frampton/signed-sealed-delivered-im-yours-chords.htm
Привет, Гость.
Предлагаем пройти революционный курс по гитаре.
Подарок от PrimaNota.Ru, забирай!