PrimaNota.ru - самый крупный в мире бесплатный архив песенных текстов, аккордов, табулатур и нот


Peter Frampton - Baby I Love Your Way - Live - таба, видео

Регистрация Запомнить меня
Войти через:  Facebook Google Twitter Vk Yandex Mail.ru

Peter Frampton - Baby I Love Your Way - Live - таба, видео

Печатать
Просмотров: 106
Уроки эстрадного вокала в Санкт-Петербурге
BABY, I LOVE YOUR WAY (Live)

As recorded by Peter Frampton
(From the 1976 Album FRAMPTON COMES ALIVE!)

Words and Music by Peter Frampton

Transcribed by Slowhand


Gtr I (E A D G B E) - 'Peter Frampton - Acoustic Guitar'
Gtr II (E A D G B E) - 'Bob Mayo - Electric Piano'


 Intro
  Q=73
  G                   Gsus2/F#
 4/4
  Gtr I (Ac. Gtr.)
   E  S  S  +S   S  e  E  S  S  +S   S  e
|-----------------------------------------|
|-12-12-12-(12)-12-12-10-10-10-(10)-10-10-|
|--0--0--0--(0)--0--0--0--0--0--(0)--0--0-|
|-----------------------------------------|
|-10-10-10-(10)-10-10--9--9--9--(9)--9--9-|
|-----------------------------------------|


  Em                    DaddC               Bm7
  E S S +S  E S S E S e e   E S S +S  S S S E S S +S  S S S
|-------------------------|----------------------------------|
|-8-8-8-(8)-8-8-8-8-8-8-7-|-5-5-5-(5)-5-x-x-7-7-7-(7)-7-x-x--|
|-0-0-0-(0)-0-0-0-0-0-0-0-|-0-0-0-(0)-0-x-x-7-7-7-(7)-7-x-x--|
|-------------------------|-----------------7-7-7-(7)-7-x-x--|
|-7-7-7-(7)-7-7-7-7-7-7-5-|-3-3-3-(3)-3-x-x------------------|
|-------------------------|-----------------7-7-7-(7)-7-x-x--|


                               $
                               $$
  Am7         Cmaj7/D
  E S S S S S S +Q   +S  S s S
|-5-5-5---5-5-7-(7)--(7)-7-----||
|-5-5-5---5-5-5-(5)--(5)-5-5-x-||
|-5-5-5---5-5-5-(5)--(5)-5-5-x-||
|-5-5-5---5-5-5-(5)--(5)-5-5-x-||
|-------------5-(5)--(5)-------||
|-5-5-5---5-5------------------||


 1st - 3rd Verses
  G                   Gsus2/F#              Em                    Dadd4
   E  S  S  +S   S  e  E  S  S  +S   S  e   E S S +S  E S S E S e e
|-----------------------------------------|--------------------------|
|-12-12-12-(12)-12-12-10-10-10-(10)-10-10-|-8-8-8-(8)-8-8-8-8-8-8-7--|
|--0--0--0--(0)--0--0--0--0--0--(0)--0--0-|-0-0-0-(0)-0-0-0-0-0-0-0--|
|-----------------------------------------|--------------------------|
|-10-10-10-(10)-10-10--9--9--9--(9)--9--9-|-7-7-7-(7)-7-7-7-7-7-7-5--|
|-----------------------------------------|--------------------------|


  C                               F9
  E S S +S  E S E S S +S  S S S   E S S +S  S S S E S S +S  S S S
|-------------------------------|-8-8-8-(8)-8-8-8-8-8-8-(8)-8-x-x-|
|-5-5-5-(5)-5-5-5-5-5-(5)-5-x-x-|-8-8-8-(8)-8-8-8-8-8-8-(8)-8-x-x-|
|-0-0-0-(0)-0-0-0-0-0-(0)-0-x-x-|-8-8-8-(8)-8-8-8-8-8-8-(8)-8-x-x-|
|-------------------------------|-7-7-7-(7)-7-7-7-7-7-7-(7)-7-x-x-|
|-3-3-3-(3)-3-3-3-3-3-(3)-3-x-x-|-8-8-8-(8)-8-8-8-8-8-8-(8)-8-x-x-|
|-------------------------------|---------------------------------|


  G                   Gsus2/F#
   E  S  S  +S   S  e  E  S  S  +S   S  e
|-----------------------------------------|
|-12-12-12-(12)-12-12-10-10-10-(10)-10-10-|
|--0--0--0--(0)--0--0--0--0--0--(0)--0--0-|
|-----------------------------------------|
|-10-10-10-(10)-10-10--9--9--9--(9)--9--9-|
|-----------------------------------------|


  Em                    DaddC
  E S S +S  E S S E S e e   E S S +S  E S E S S +S  S S S
|-------------------------|-------------------------------|
|-8-8-8-(8)-8-8-8-8-8-8-7-|-5-5-5-(5)-5-5-5-5-5-(5)-5-x-x-|
|-0-0-0-(0)-0-0-0-0-0-0-0-|-0-0-0-(0)-0-0-0-0-0-(0)-0-x-x-|
|-------------------------|-------------------------------|
|-7-7-7-(7)-7-7-7-7-7-7-5-|-3-3-3-(3)-3-3-3-3-3-(3)-3-x-x-|
|-------------------------|-------------------------------|


  F9
  E S S +S  S S S E S S +S  S S S
|-8-8-8-(8)-8-8-8-8-8-8-(8)-8-x-x--||
|-8-8-8-(8)-8-8-8-8-8-8-(8)-8-x-x--||
|-8-8-8-(8)-8-8-8-8-8-8-(8)-8-x-x--||
|-7-7-7-(7)-7-7-7-7-7-7-(7)-7-x-x--||
|-8-8-8-(8)-8-8-8-8-8-8-(8)-8-x-x--||
|----------------------------------||


 Pre-Chorus
  Bm7
  E S S +S  E S E S S +S  S S S
|-------------------------------|
|-7-7-7-(7)-7-7-7-7-7-(7)-7-x-x-|
|-7-7-7-(7)-7-7-7-7-7-(7)-7-x-x-|
|-7-7-7-(7)-7-7-7-7-7-(7)-7-x-x-|
|-------------------------------|
|-7-7-7-(7)-7-7-7-7-7-(7)-7-x-x-|


  E7                             Am7
  E S S +S  E S E. S +S  S S S   E S S +S  E S E S S +S  S S S
|-0-0-0-(0)-0-0-0--0-(0)-0-x-x-|-5-5-5-(5)-5-5-5-5-5-(5)-5-x-x--|
|-5-5-5-(5)-5-5-5--5-(5)-5-x-x-|-5-5-5-(5)-5-5-5-5-5-(5)-5-x-x--|
|-7-7-7-(7)-7-7-7--7-(7)-7-x-x-|-5-5-5-(5)-5-5-5-5-5-(5)-5-x-x--|
|-6-6-6-(6)-6-6-6--6-(6)-6-x-x-|-5-5-5-(5)-5-5-5-5-5-(5)-5-x-x--|
|-7-7-7-(7)-7-7-7--7-(7)-7-x-x-|-7-7-7-(7)-7-7-7-7-7-(7)-7-x-x--|
|------------------------------|-5-5-5-(5)-5-5-5-5-5-(5)-5-x-x--|


                                Chorus
  D9                             G5              D   DsDs2     DsDs4
  E S S +S  E S E S S S S S S    E S S +S  S S S S S S S +S  S S S
|-0-0-0-(0)-0-0-0-0-0-0-0-x-x-||-3-3-3-(3)-3-3-x-2-2-0-2-(2)-2-3-2-|
|-3-3-3-(3)-3-3-3-3-3-3-3-x-x-||-3-3-3-(3)-3-3-x-3-3-3-3-(3)-3-3-3-|
|-5-5-5-(5)-5-5-5-5-5-5-5-x-x-||-0-0-0-(0)-0-0-x-2-2-2-2-(2)-2-2-2-|
|-4-4-4-(4)-4-4-4-4-4-4-4-x-x-||-0-0-0-(0)-0-0-x-0-0-0-0-(0)-0-0-0-|
|-5-5-5-(5)-5-5-5-5-5-5-5-x-x-||-----------------------------------|
|-----------------------------||-3-3-3-(3)-3-3-x-------------------|


  Am7             C                 G5              D   DsDs2     DsDs4
  E S S +S  S S S E S S +S  S S S   E S S +S  S S S S S S S +S  S S S
|-0-0-0-(0)-0-0-x-0-0-0-(0)-0-0-x-|-3-3-3-(3)-3-3-x-2-2-0-2-(2)-2-3-2-|
|-1-1-1-(1)-1-1-x-1-1-1-(1)-1-1-x-|-3-3-3-(3)-3-3-x-3-3-3-3-(3)-3-3-3-|
|-0-0-0-(0)-0-0-x-0-0-0-(0)-0-0-x-|-0-0-0-(0)-0-0-x-2-2-2-2-(2)-2-2-2-|
|-2-2-2-(2)-2-2-x-2-2-2-(2)-2-2-x-|-0-0-0-(0)-0-0-x-0-0-0-0-(0)-0-0-0-|
|-0-0-0-(0)-0-0-x-3-3-3-(3)-3-3-x-|-----------------------------------|
|---------------------------------|-3-3-3-(3)-3-3-x-------------------|


                      To Dbl. Coda
  Am7             C                  G5              D   DsDs2     DsDs4
  E S S +S  S S S E S S +S  S S S    E S S +S  S S S S S S S +S  S S S
|-0-0-0-(0)-0-0-x-0-0-0-(0)-0-0-x--|-3-3-3-(3)-3-3-x-2-2-0-2-(2)-2-3-2-|
|-1-1-1-(1)-1-1-x-1-1-1-(1)-1-1-x--|-3-3-3-(3)-3-3-x-3-3-3-3-(3)-3-3-3-|
|-0-0-0-(0)-0-0-x-0-0-0-(0)-0-0-x--|-0-0-0-(0)-0-0-x-2-2-2-2-(2)-2-2-2-|
|-2-2-2-(2)-2-2-x-2-2-2-(2)-2-2-x--|-0-0-0-(0)-0-0-x-0-0-0-0-(0)-0-0-0-|
|-0-0-0-(0)-0-0-x-3-3-3-(3)-3-3-x--|-----------------------------------|
|----------------------------------|-3-3-3-(3)-3-3-x-------------------|


                           To Coda
  Am7             C
  E S S +S  S S S E S S +S  S S S
|-0-0-0-(0)-0-0-x-0-0-0-(0)-0-0-x--||
|-1-1-1-(1)-1-1-x-1-1-1-(1)-1-1-x--||
|-0-0-0-(0)-0-0-x-0-0-0-(0)-0-0-x--||
|-2-2-2-(2)-2-2-x-2-2-2-(2)-2-2-x--||
|-0-0-0-(0)-0-0-x-3-3-3-(3)-3-3-x--||
|----------------------------------||
|
|                                  
| W
|----------------------------------||
|----------------------------------||
|----------------------------------||
|----------------------------------||
|----------------------------------||
|----------------------------------||


 Interlude
  G                   Gsus2/F#                       Em                               Dadd4
   E  S  S  +S   S  e  E        S  S  +S   S  e       E  S  S  +S  E    S  S  E  S  e e
|--------------------------------------------------|------------------------------------|
|-12-12-12-(12)-12-12-10-------10-10-(10)-10-10----|--8--8--8--(8)-8----8--8--8--8--8-7-|
|--0--0--0--(0)--0--0--0--------0--0--(0)--0--0----|--0--0--0--(0)-0----0--0--0--0--0-0-|
|--------------------------------------------------|------------------------------------|
|-10-10-10-(10)-10-10--9--------9--9--(9)--9--9----|--7--7--7--(7)-7----7--7--7--7--7-5-|
|--------------------------------------------------|------------------------------------|
|
|Gtr II (El. Piano arr. for Gtr.)
|  E  S  S   S   S  E  S  T  T  S  S  +S   S  S  S    E  S  S  +E     E    S  E.    Q
|-10----12------10----10---------------------------|-----------------10---10-12----14---|
|-10----13------12----10h12p10---------------------|-------12-(12)---10---10-12----15---|
|-------------------0----------12-11-(11)-12-------|-14----12-(12)---11---11-12----14---|
|-----9--------------------------------------12----|-14----12-(12)----------------------|
|-----------------------------------------------14-|----14------------------------------|
|--------------------------------------------------|------------------------------------|


  C                   Bm7
    E  S S +S  S  S S  E     S  S  +S   S  S  S
|-----------------------------------------------|
|---5--5-5-(5)-5--x-x--7-----7--7--(7)--7--x--x-|
|---0--0-0-(0)-0--x-x--7-----7--7--(7)--7--x--x-|
|----------------------7-----7--7--(7)--7--x--x-|
|---3--3-3-(3)-3--x-x---------------------------|
|----------------------7-----7--7--(7)--7--x--x-|
|
|   Q.            E    S  S  S  S  +S   S  S  S
|-^15-----------------14---------------12-------|
|-^15--------------------15---------------15-13-|
|-^14-----------------------14---------------16-|
|------------------------------16-(16)----------|
|----------------15-----------------------------|
|-----------------------------------------------|


                          D.S. al Coda
  Am7                Cmaj7/D
   E  S  S   S   S S  S  +Q   +S  S s S
|--5--5--5-------5-5--7--(7)--(7)-7-----||
|--5--5--5-------5-5--5--(5)--(5)-5-5-x-||
|--5--5--5-------5-5--5--(5)--(5)-5-5-x-||
|--5--5--5-------5-5--5--(5)--(5)-5-5-x-||
|---------------------5--(5)--(5)-------||
|--5--5--5-------5-5--------------------||
|
|  E.    S  +S   E    S  +H
|--------------------10-(10)------------||
|-------12-(12)-10----------------------||
|---------------------------------------||
|-14----12-(12)-10----------------------||
|---------------------------------------||
|---------------------------------------||


 Electric Piano Solo
  &
  G                   Gsus2/F#               Em                                    DaddC
   E  S  S  +S   S  e  E   S  S  +S   S  e     E      S S +S  E    S  S  E S  e    e
|------------------------------------------|-----------------------------------------|
|-12-12-12-(12)-12-12-10--10-10-(10)-10-10-|---8------8-8-(8)-8----8--8--8-8--8----7-|
|--0--0--0--(0)--0--0--0---0--0--(0)--0--0-|---0------0-0-(0)-0----0--0--0-0--0----0-|
|------------------------------------------|-----------------------------------------|
|-10-10-10-(10)-10-10--9---9--9--(9)--9--9-|---7------7-7-(7)-7----7--7--7-7--7----5-|
|------------------------------------------|-----------------------------------------|
|
| Gtr II
|  E  Q             E  E.     S   Q           +S   E.      E     E    E.   S +S  S E
|----------------------0---------10--------|-(10)------------------------------------|
|--0-12------------12-10---------12--------|-(12)---------15----12---10----8-(8)-7---|
|--0-12------------12-11-------------------|------14------------12---11----9-(9)-7---|
|----14------------14--------12------------|------14-------------------------------9-|
|------------------------------------------|-----------------------------------------|
|------------------------------------------|-----------------------------------------|


   E    S  S +S   E     S  E    S  S +S  S S S
|----------------------------------------------|
|--5----5--5-(5)--5-----5--5----5--5-(5)-5-x-x-|
|--0----0--0-(0)--0-----0--0----0--0-(0)-0-x-x-|
|----------------------------------------------|
|--3----3--3-(3)--3-----3--3----3--3-(3)-3-x-x-|
|----------------------------------------------|
|
|  S S  S  S  S   S  S  S  S  E    S  E    E
|--------------------8-10----------------------|
|----8-10----12-----10-12----12-------8----8---|
|----9-11----12-----------------------9----9---|
|-10------10-----10-------10-------------------|
|---------------------------------10-----------|
|----------------------------------------------|


  F9
  E   S  S  +S   S S  S   E     S  S  +S   S S  S
|-8---8--8--(8)--8-8--8---8-----8--8--(8)--8-x--x-|
|-8---8--8--(8)--8-8--8---8-----8--8--(8)--8-x--x-|
|-8---8--8--(8)--8-8--8---8-----8--8--(8)--8-x--x-|
|-7---7--7--(7)--7-7--7---7-----7--7--(7)--7-x--x-|
|-8---8--8--(8)--8-8--8---8-----8--8--(8)--8-x--x-|
|-------------------------------------------------|
|
| S E    S  +S   E    S  +S   E    S  +S   E    S
|---------------10---13-(13)-17-------------------|
|---8---11-(11)-11---15-(15)-18---17-(17)-15------|
|---8---12-(12)--------------------------------17-|
|-------------------------------------------------|
|-------------------------------------------------|
|-------------------------------------------------|


  G                               Gsus2/F#
   E           S  S  +S   S  e      E            S     S     +S      S     e
|--------------------------------------------------------------------------------------|
|-12----------12-12-(12)-12-12-----10-----------10----10----(10)----10----10-----------|
|--0-----------0--0--(0)--0--0------0------------0-----0-----(0)-----0-----0-----------|
|--------------------------------------------------------------------------------------|
|-10----------10-10-(10)-10-10------9------------9-----9-----(9)-----9-----9-----------|
|--------------------------------------------------------------------------------------|
|
|  |--3--|                              |--3--|
|  T  T  T  S  E      S   S  S  S  +S   T  T  T  T  T  T  T   T   T  T  T  T  T  T  T
|--------------------------------------------12-17-15p13-12----------------------------|
|-15h17p15-17-15--------------------------15-----------------15--12-------15-----------|
|----------17-16-----14-----12s11-(11)-14---------------------------14-12----14-12-11--|
|--------------------------------------------------------------------------------------|
|------------------------14------------------------------------------------------------|
|--------------------------------------------------------------------------------------|


  Em                                            Dadd4C
   E  S  S  +S   E       S     S  E       S   e  e
|--------------------------------------------------|
|--8--8--8--(8)--8-------8-----8--8-------8---8--7-|
|--0--0--0--(0)--0-------0-----0--0-------0---0--0-|
|--------------------------------------------------|
|--7--7--7--(7)--7-------7-----7--7-------7---7--5-|
|--------------------------------------------------|
|
|                   |---3---|
|  E  S  S  +S   S  S  S    S  S  S.  T  +S   E  E
|--------------------------------------------------|
|-----------------------------15-------------------|
|---------------------11---14----16--14-(14)----14-|
|-14----12-(12)----12------------------------17-17-|
|----14---------14---------------------------------|
|--------------------------------------------------|


                                                  F9
    E      S  S  +S   E  S   E    S S +S  S S S    E    S S +S   S S S E   S  S +S  S  S S
|-----------------------------------------------|--8----8-8-(8)--8-8-8-8---8--8-(8)-8--x-x---||
|---5------5--5--(5)--5--5---5----5-5-(5)-5-x-x-|--8----8-8-(8)--8-8-8-8---8--8-(8)-8--x-x---||
|---0------0--0--(0)--0--0---0----0-0-(0)-0-x-x-|--8----8-8-(8)--8-8-8-8---8--8-(8)-8--x-x---||
|-----------------------------------------------|--7----7-7-(7)--7-7-7-7---7--7-(7)-7--x-x---||
|---3------3--3--(3)--3--3---3----3-3-(3)-3-x-x-|--8----8-8-(8)--8-8-8-8---8--8-(8)-8--x-x---||
|-----------------------------------------------|--------------------------------------------||
|
|  +S    E    S  +S   E  S  +S  E   S +S  E   S   +S  E   S +S   E   S S S S  S  S  E.
|-----------------------------------------------|----------------8-----------10--8-----------||
|------/15---13-(13)-12-10-(10)-8---7-(7)-------|-----6---8-(8)-10-----6---8--------8--------||
|-(14)-/16---14-(14)-12-11-(11)-9---------9---8-|-(8)-7---8-(8)------8---7-------------------||
|-(17)------------------------------------------|--------------------------------------------||
|-----------------------------------------------|--------------------------------------------||
|-----------------------------------------------|--------------------------------------------||


 Pre-Chorus
  Bm7
  E S S +S  E S E S S +S  S S S
|-------------------------------|
|-7-7-7-(7)-7-7-7-7-7-(7)-7-x-x-|
|-7-7-7-(7)-7-7-7-7-7-(7)-7-x-x-|
|-7-7-7-(7)-7-7-7-7-7-(7)-7-x-x-|
|-------------------------------|
|-7-7-7-(7)-7-7-7-7-7-(7)-7-x-x-|


  E7                             Am7
  E S S +S  E S E. S +S  S S S   E S S +S  E S E S S +S  S S S
|-0-0-0-(0)-0-0-0--0-(0)-0-x-x-|-5-5-5-(5)-5-5-5-5-5-(5)-5-x-x--|
|-5-5-5-(5)-5-5-5--5-(5)-5-x-x-|-5-5-5-(5)-5-5-5-5-5-(5)-5-x-x--|
|-7-7-7-(7)-7-7-7--7-(7)-7-x-x-|-5-5-5-(5)-5-5-5-5-5-(5)-5-x-x--|
|-6-6-6-(6)-6-6-6--6-(6)-6-x-x-|-5-5-5-(5)-5-5-5-5-5-(5)-5-x-x--|
|-7-7-7-(7)-7-7-7--7-(7)-7-x-x-|-7-7-7-(7)-7-7-7-7-7-(7)-7-x-x--|
|------------------------------|-5-5-5-(5)-5-5-5-5-5-(5)-5-x-x--|


                                  Chorus
           D.S.S. al Dbl. Coda &&
  D9                               G5              D   DsDs2     DsDs4
  E S S +S  E S E S S S S S S      E S S +S  S S S S S S S +S  S S S
|-0-0-0-(0)-0-0-0-0-0-0-0-x-x--||--3-3-3-(3)-3-3-x-2-2-0-2-(2)-2-3-2-|
|-3-3-3-(3)-3-3-3-3-3-3-3-x-x--||o-3-3-3-(3)-3-3-x-3-3-3-3-(3)-3-3-3-|
|-5-5-5-(5)-5-5-5-5-5-5-5-x-x--||--0-0-0-(0)-0-0-x-2-2-2-2-(2)-2-2-2-|
|-4-4-4-(4)-4-4-4-4-4-4-4-x-x--||--0-0-0-(0)-0-0-x-0-0-0-0-(0)-0-0-0-|
|-5-5-5-(5)-5-5-5-5-5-5-5-x-x--||o-----------------------------------|
|------------------------------||--3-3-3-(3)-3-3-x-------------------|


  Am7             C
  E S S +S  S S S E S S +S  S S S  4x
|-0-0-0-(0)-0-0-x-0-0-0-(0)-0-0-x--||
|-1-1-1-(1)-1-1-x-1-1-1-(1)-1-1-x-o||
|-0-0-0-(0)-0-0-x-0-0-0-(0)-0-0-x--||
|-2-2-2-(2)-2-2-x-2-2-2-(2)-2-2-x--||
|-0-0-0-(0)-0-0-x-3-3-3-(3)-3-3-x-o||
|----------------------------------||
|
| Gtr II
| W                                4x
|----------------------------------||
|---------------------------------o||
|----------------------------------||
|----------------------------------||
|---------------------------------o||
|----------------------------------||


 Outro
  G                       Gsus2/F#
    E  S  S  +S   S  e      E   S  S  +S     S  e
|-------------------------------------------------|
|--12-12-12-(12)-12-12-----10--10-10-(10)---10-10-|
|---0--0--0--(0)--0--0------0---0--0--(0)----0--0-|
|-------------------------------------------------|
|--10-10-10-(10)-10-10------9---9--9--(9)----9--9-|
|-------------------------------------------------|
|
|   E  S  S   S   S  S  S  +E.     S   T  T  S  E
|-^15---------------------------------------------|
|-^15-----0--15--13-12-15-(15)--------------------|
|-^14--0-----16--14-12-14-(14)----14--11h14p11----|
|----------------------------------------------14-|
|-------------------------------------------------|
|-------------------------------------------------|


  H.=H
  Em                 DadC4            G/BAm7 G
   E     S  S +S   S  e  E  S  S  +S   S E   W
|------------------------------------------|-3----*|
|--8-----8--8-(8)--8--7--5--5--5--(5)--3-1-|-3----*|
|--0-----0--0-(0)--0--0--0--0--0--(0)--0-0-|-0----*|
|----------------------------------------2-|-0----*|
|--7-----7--7-(7)--7--5--3--3--3--(3)--2-0-|-2----*|
|------------------------------------------|-3----*|
|
|  S  S  S  S  S   S  E  E.    S  +S   S E   W
|------------------------------------------|------*|
|-------------12-----13-12----12-(12)-10-8-|-8----*|
|----11-12-14-----------12----12-(12)-11-9-|-7----*|
|-14--------------12----14----14-(14)------|-9----*|
|-----------------------15----15-(15)------|------*|
|------------------------------------------|------*|


Duration Legend
---------------
W - whole; H - half; Q - quarter; E - 8th; S - 16th; T - 32nd; X - 64th; a - acciaccatura
+ - note tied to previous; . - note dotted; .. - note double dotted
Uncapitalized letters represent notes that are staccato (1/2 duration)
Irregular groupings are notated above the duration line
Duration letters will always appear directly above the note/fret number it represents the
duration for.  Duration letters with no fret number below them represent rests.  Multi-
bar rests are notated in the form Wxn, where n is the number of bars to rest for.  Low
melody durations appear below the staff

Tablature Legend
----------------
 h   - hammer-on
 p   - pull-off
 b   - bend
 pb  - pre-bend
 r   - bend release (if no number after the r, then release immediately)
 /\  - slide into or out of (from/to "nowhere")
 s   - legato slide
 S   - shift slide
  - natural harmonic
[n]  - artificial harmonic
n(n) - tapped harmonic
 ~   - vibrato
 tr  - trill
 T   - tap
 TP  - trem. picking
 PM  - palm muting
\n/  - tremolo bar dip; n = amount to dip
 \n  - tremolo bar down
 n/  - tremolo bar up
/n\  - tremolo bar inverted dip
 =   - hold bend; also acts as connecting device for hammers/pulls
 <>  - volume swell (louder/softer)
 x   - on rhythm slash represents muted slash
 o   - on rhythm slash represents single note slash

Misc Legend
-----------
 |  - bar
||  - double bar
||o - repeat start
o|| - repeat end
*|  - double bar (ending)
 :  - bar (freetime)
 $  - Segno
 &  - Coda
Tempo markers -  = BPM(8/16=s8/s16), where s8 = swing 8ths, s16 = swing 16ths
Добавлено: 08.11.2015
Другие материалы по этой песне:
  • Аккорды и текст

Страница создана 08.11.2015
http://primanota.ru/peter-frampton/baby-i-love-your-way-live-chords.htm
Привет, Гость.
Предлагаем пройти революционный курс по гитаре.
Подарок от PrimaNota.Ru, забирай!