PrimaNota.ru - самый крупный в мире бесплатный архив песенных текстов, аккордов, табулатур и нот


Peter Dodds Mccormick - Advance Australia Fair - таба, видео

Регистрация Запомнить меня
Войти через:  Facebook Google Twitter Vk Yandex Mail.ru

Peter Dodds Mccormick - Advance Australia Fair - таба, видео

Печатать
Просмотров: 68
Авторы музыки: Peter Dodds McCormick
Авторы текста: Peter Dodds McCormick
   |-0--5--0---------0--5---5-5-----------9---7---5---4-----5---7---|
   |------------2---------------------------------------------------|
   |----------------------------------------------------------------|
   |----------------------------------------------------------------|
   |----------------------------------------------------------------|
   |----------------------------------------------------------------|
    Australians all let us rejoice,      For we are young and free;

   |--0--5--0---------------0-----0-0--------9----7---5--4----2--0--|
   |--------------2-------------------------------------------------|
   |------------------2---------------------------------------------|
   |----------------------------------------------------------------|
   |----------------------------------------------------------------|
   |----------------------------------------------------------------|
   We've golden soil and wealth for toil;    Our home is girt by sea;

   |--0---2----4-5----2---0------------------0--2--5---10---9----7--|
   |------------------------2------2--------------------------------|
   |----------------------------------------------------------------|
   |----------------------------------------------------------------|
   |----------------------------------------------------------------|
   |----------------------------------------------------------------|
     Our land abounds in nature's gifts;     Of beauty rich and rare;

   |--0---2--4------5-----2---0-5---5---------7--9----5--7--4----5--|
   |----------------------------------------------------------------|
   |----------------------------------------------------------------|
   |----------------------------------------------------------------|
   |----------------------------------------------------------------|
   |----------------------------------------------------------------|
      In history's page, let every stage;    Advance Australia Fair.

   |----9---10-9-----7-----5-----4--2-0-------5--9----5--7--4----5--|
   |----------------------------------------------------------------|
   |----------------------------------------------------------------|
   |----------------------------------------------------------------|
   |----------------------------------------------------------------|
   |----------------------------------------------------------------|
        In joyful strains then let us sing,  Advance Australia Fair.


Verse 2
Beneath our radiant Southern Cross
We'll toil with hearts and hands;
To make this Commonwealth of ours
Renowned of all the lands;
For those who've come across the seas
We've boundless plains to share;
With courage let us all combine
To Advance Australia Fair.
In joyful strains then let us sing,
Advance Australia Fair.
Добавлено: 21.06.2015
Другие материалы по этой песне:
  • Аккорды и текст

Страница создана 21.06.2015
http://primanota.ru/peter-dodds-mccormick/advance-australia-fair-chords.htm
Привет, Гость.
Предлагаем пройти революционный курс по гитаре.
Подарок от PrimaNota.Ru, забирай!