PrimaNota.ru - самый крупный в мире бесплатный архив песенных текстов, аккордов, табулатур и нот


Peter Capaldi - Clara - таба, видео

Регистрация Запомнить меня
Войти через:  Facebook Google Twitter Vk Yandex Mail.ru

Peter Capaldi - Clara - таба, видео

Печатать
Просмотров: 234
The version of Claras theme, played by Peter Capaldi in the Doctor Who episode "Hell Bent"


E |--3-----------------------------------0-------------0------------------|
B |--0-----0--0--0------0--1-3--1--0-----1-----1---3-------3---1----------|
G |--0-----------------------------------2---------------------------2h4--|
D |--0-----------------------------------2---------------------------0----| 
A |--2-----------------------------------0---------------------------2----|
E |--3---------------------------------------------------------------3----|

E |--0-----0--0--0------0--2-3--2--0-----2-----------------------0-------3---|
B |--1-----------------------------------3---1s3--5s-7--5--3-----1-------0---|
G |--0-----------------------------------4-----------------------2-------0---|
D |--2-----------------------------------4-----------------------2-------0---| 
A |--3-----------------------------------2-----------------------0-------2---|
E |----------------------------------------------------------------------3---|

E |--------------------------3--2----------------------------------------------|
B |--------1--0-------------------3------------1--0-----------------3----------|
G |--------------2-----0--2---------2----------------2--0--2---2----0h-2p-0----|
D |-----------------------0-----------0--------------------0--------0-------0--|
A |--2--3-------------------------------2--3-----------------------------------|
E |----------------------------------------------------------------------------|
 

E |-----------------------------------------------------0--|
B |--3-3-3-3-3-3-3-3-3-3-3-3-7-7-7-7-7-7-7-7-7-7-7-0----0--|
G |--4-4-4-4-4-4-4-4-4-4-4-4-7-7-7-7-7-7-7-7-7-7-7-0----0--|
D |--4-4-4-4-4-4-4-4-4-4-4-4-7-7-7-7-7-7-7-7-7-7-7-0----2--| 
A |--2-2-2-2-2-2-2-2-2-2-2-2/5-5-5-5-5-5-5-5-5-5-5------2--|
E |-----------------------------------------------------0--|


E |--3p-2p-0-------------0----0-----------0---|
B |------------3---0-----0h1--3-----------0---|
G |----------------------0----0-----------0---|
D |----------------------2----4-----------2---|
A |----------------------3----5-----------2---|
E |---------------------------------------0---|


figured it out by ear and am open for suggestions and corrections :)
have fun!
Добавлено: 18.05.2016
Вам также может быть интересно:
Другие материалы по этой песне:
  • Аккорды и текст

Страница создана 18.05.2016
http://primanota.ru/peter-capaldi/clara-chords.htm
Привет, Гость.
Предлагаем пройти революционный курс по гитаре.
Подарок от PrimaNota.Ru, забирай!