PrimaNota.ru - самый крупный в мире бесплатный архив песенных текстов, аккордов, табулатур и нот


Peter Bjorn & John - Unreleased Backgrounds - аккорды и текст, видео

Регистрация Запомнить меня
Войти через:  Facebook Google Twitter Vk Yandex Mail.ru

Peter Bjorn & John - Unreleased Backgrounds - аккорды и текст, видео

Печатать
Просмотров: 101
Unreleased Backgrounds
Peter Bjorn & John
Artist: Peter Bjorn And John
Song: Unreleased Backgrounds
Album: Falling Out (2004)

Tabbed by: Cambell Doyle
E-mail: cambelldoyle@hotmail.com
Tuning: Standard

NOTE: 

For the intro just play  C , pick/strum it backwards, slowly getting faster over
the entire 2mins 50secs of this crazy intro, with the occasional variation of 
playing the Dstring open.....     This should make sense after a good listen.


C
   Where are you heading towards?

F
   I know you're not looking backwards

Dm                                    E          G
   But please don't leave me standing by

C
   It's been a long time passing

F
   Thought it would be everlasting

Dm                      E            G
   Not all happen as it may



      F             Am
It's very sad, but true

      Am                   G
I'm getting unattached to you

   F
It feels as if a stranger calling

E                        
Telling me about all the


e|---------------------3--------------|
B|-------5-----3---3-5---5-3----------|
G|-7-5-7---4-----5-----------5--------|
D|------------------------------------|
A|------------------------------------|
E|------------------------------------|

    "appalling things you do"




C
   All dressed up with opinions

F
   Slick n smart and pleasing a billion

Dm                                 E             G
   Just don't forget the personal view

C
   You don't wanna be too much this

F
   You don't wanna be too much that

Dm                          E              G
   You wanna be nothing at all


      F             Am
It's very sad, but true

     Am                   G
I'm getting unattached to you

    F
It feels as if a stranger calling


                                     C
e|--------------------------------------------3-------------|
B|-----------------------5-----5-----5---3--5---5-3---------|
G|-7-h9-9-7-9-7-5-4------7-5-7---4---5-5------------5-------|
D|-----------------------------------5----------------------|
A|----------------------------------------------------------|
E|----------------------------------------------------------|

    "Telling me about all the exciting things you do"



C
   Don't count me out as jealous

F
   It's not appropriate as

Dm                                E              G
   I don't wanna be there in your place

C
   I have a box of pleasure

F
   I hid the key as a treasure

Dm                                  E            G
   For leisure, won't you come and seek?


       F            Am
It's very sad, but true

     Am                    G
I'm getting unattached to you

    F
It feels as if all you explain, oh


                                     C
e|--------------------------------------------3-------------|
B|-----------------------5-----5-----5---3--5---5-3---------|
G|-7-h9-9-7-9-7-5-4------7-5-7---4---5-5------------5-------|
D|-----------------------------------5----------------------|
A|----------------------------------------------------------|
E|----------------------------------------------------------|

"You explain is you're, so wait and, I'm embarrassed too...See you"

    



Outro:  C  (Same as Intro)



This is such an awesome song but I can imagine majority of people
wont make it past the long and whacky intro.....Their Loss!
Добавлено: 21.07.2013
Вам также может быть интересно:
Другие материалы по этой песне:
  • Аккорды и текст

Страница создана 21.07.2013
http://primanota.ru/peter-bjorn-and-john/unreleased-backgrounds-chords.htm
Привет, Гость.
Предлагаем пройти революционный курс по гитаре.
Подарок от PrimaNota.Ru, забирай!