PrimaNota.ru - самый крупный в мире бесплатный архив песенных текстов, аккордов, табулатур и нот


Peter Bic Project - Hey Now Nightparis Remix - таба, видео

Регистрация Запомнить меня
Войти через:  Facebook Google Twitter Vk Yandex Mail.ru

Peter Bic Project - Hey Now Nightparis Remix - таба, видео

Печатать
Просмотров: 72
-------------------------
Artist: Peter Bic Project
Song: Hey Now (NightParis Remix)
Tabbed by: qyqez
e-mail: qyqez@outlook.com
-------------------------

---PRE-CHORUS--- 

e|------------------------|
B|------------------------|
G|----11-9----7---6~------| (x5)
D|-7~------7~---7----9~-9-|
A|------------------------|
E|------------------------|

Then...

e|----------------------|------------------------|-------------------|
B|----------------------|------------------------|-------------------|
G|----11-9----7---6~----|----11-9----7---6~------|----11-9----7---6~-|
D|-7~------7~---7----9~-|-7~------7~---7----9~-9-|-7~------7~---7----|
A|----------------------|------------------------|-------------------|
E|----------------------|------------------------|-------------------|

---CHORUS---

e|------------------------|
B|------------------------|
G|----11-9----7---6~------| (x9)
D|-7~------7~---7----9~-9-|
A|------------------------|
E|------------------------|

---OUTRO---

e|--------------------------------|              e|---------------------------------|
B|--------------------------------|              B|---------------------------------|
G|----11-9----7---6~-7---6~-7---6-| (x3) Then... G|----11-9----7---6~-7---6~-7---6~-|
D|-7~------7~---7------7------7---|              D|-7~------7~---7------7------7----|
A|--------------------------------|              A|---------------------------------|
E|--------------------------------|              E|---------------------------------|

~ = (let ring)

Добавлено: 09.12.2015
Другие материалы по этой песне:
  • Аккорды и текст

Страница создана 09.12.2015
http://primanota.ru/peter-bic-project/hey-now-nightparis-remix-chords.htm
Привет, Гость.
Предлагаем пройти революционный курс по гитаре.
Подарок от PrimaNota.Ru, забирай!