PrimaNota.ru - самый крупный в мире бесплатный архив песенных текстов, аккордов, табулатур и нот


Peter And The Test Tube Babies - Let's Burn - текст песни, таба, видео

Регистрация Запомнить меня
Войти через:  Facebook Google Twitter Vk Yandex Mail.ru

Peter And The Test Tube Babies - Let's Burn - текст песни, таба, видео

Печатать
Просмотров: 139
-------------------------------------------------------------------------------
                    LET'S BURN - Peter And The Test Tube Babies
-------------------------------------------------------------------------------

by DJOLE fatdjole@ptt.yu

   Intro
E|-----------------------------5--3-3-3--1-1-1-1----------------------|
B|-----------------------------5--3-3-3--1-1-1-1----------------------|
C|--5-5--4--5--7--5--4-4-4-4---6--4-4-4--2-2-2-2----------------------|
D|--5-5--4--5--7--5--4-4-4-4---7--5-5-5--3-3-3-3----------------------|x2
A|--3-3--2--3--5--3--2-2-2-2---7--5-5-5--3-3-3-3----------------------|
E|-----------------------------5--3-3-3--1-1-1-1----------------------|

E|-----------------------------------------------------------------|
B|-----------------------------------------------------------------|
C|------5--7--7-5-4-5--4-5-7-5-4-----------------------------------|
D|----5---------------------------5--------2---5-------------------|
A|--3--------------------------------3---3---3---3-----------------|
E|-----------------------------------------------------------------|

E|-----------------------------------------------------------------|
B|------------------8----------------------------------------------|
C|------5--7--7-5-4----4-5-7-5-4-----------------------------------|
D|----5---------------------------5--------2---5-------------------|
A|--3--------------------------------3---3---3---3-----------------|
E|-----------------------------------------------------------------|

E|--------------------------------------------------------------------|
B|----------------------------8-7-------------------------------------|
C|----7--9-7-----7---7-----7-------7----------------------------------|
D|--7----------5---5-----7------------7-------------------------------|x2
A|--------------------------------------------------------------------|
E|--------------------------------------------------------------------|

E|-----------------------------------------------------------------|
B|-----------------------------------------------------------------|
C|-----------------------------------------------------------------|
D|--11-11--11-12--14-12-11--9--------------------------------------|
A|--9--9---9--10--12-10-9---7--------------------------------------|
E|-----------------------------------------------------------------|

   Chorus
E|--8--6-----------8-8--6---------------------------------------------|
B|-------4-4---------------4-4----------------------------------------|
C|--------------------------------------------------------------------|
D|--------------------------------------------------------------------|x4
A|--------------------------------------------------------------------|
E|--------------------------------------------------------------------|

E|--------------------------------------------------------------------|
B|--------------------------------------------------------------------|
C|--------------------------------------------------------------------|
D|--7-7-7-7-7-7--5-5-5--4-4-4-4---------------------------------------|x2
A|--7-7-7-7-7-7--5-5-5--4-4-4-4---------------------------------------|
E|--5-5-5-5-5-5--3-3-3--2-2-2-2---------------------------------------|

   Verse
E|--------------------------------------------------------------------|
B|--11-----11-11------11-11------7-6----------------------------------|
C|------8---------8----------8--------8-------------------------------|
D|--------------------------------------------------------------------|x4
A|--------------------------------------------------------------------|
E|--------------------------------------------------------------------|

E|-----------------------------------------------------------------|
B|-----------------------------------------------------------------|
C|-----------------------------------------------------------------|
D|--7-7-7-7-7-7-7--4-4-4-4-4-4----7-7-7-7-7-7-7--4-4-4-4-4-4-------|
A|--5-5-5-5-5-5-5--4-4-4-4-4-4----5-5-5-5-5-5-5--4-4-4-4-4-4-------|
E|-----------------2-2-2-2-2-2-------------------2-2-2-2-2-2-------|

E|-----------------------------------------------------------------|
B|-----------------------------------------------------------------|
C|-----------------------------------------------------------------|
D|--7-7-7-7-7-7-7-7-7--4-4--4-4------------------------------------|
A|--5-5-5-5-5-5-5-5-5--4-4--4-4------------------------------------|
E|---------------------2-2--2-2------------------------------------|

   Chorus ->

   Verse  ->

E|--------------------------------------------------------------------|
B|--------------------------------------------------------------------|
C|------------------------------------17------------------------------|
D|--7--9-10-9--12------------15-17-18-----18-19-19-18-19-19-18-19-----|x2
A|--5--7-8--7--10--12-13-12-------------------------------------------|
E|--------------------------------------------------------------------|

   Chorus ->

   Verse  ->

   Outro
E|--------------------------------------------------------------------|
B|--7-7--5--7--8-7-5--------------------------------------------------|
C|--7-7--7--7--7-7-7--------------------------------------------------|
D|--------------------------------------------------------------------|x4
A|--------------------------------------------------------------------|
E|--------------------------------------------------------------------|

E|-----------------------------------------------------------------||
B|-----------------------------------------------------------------||
C|------------7----------------------------------------------------||
D|--4--4--4---7----------------------------------------------------||
A|--4--4--4---5----------------------------------------------------||
E|--2--2--2--------------------------------------------------------||
Добавлено: 08.06.2015
Другие материалы по этой песне:
  • Аккорды и текст

Страница создана 02.03.2012
http://primanota.ru/peter-and-the-test-tube-babies/lets-burn-chords.htm
Привет, Гость.
Предлагаем пройти революционный курс по гитаре.
Подарок от PrimaNota.Ru, забирай!