PrimaNota.ru - самый крупный в мире бесплатный архив песенных текстов, аккордов, табулатур и нот


Peter And The Test Tube Babies - Easter Bank Holiday '83 - текст песни, таба, видео

Регистрация Запомнить меня
Войти через:  Facebook Google Twitter Vk Yandex Mail.ru

Peter And The Test Tube Babies - Easter Bank Holiday '83 - текст песни, таба, видео

Печатать
Просмотров: 243
PETER AND THE TEST TUBE BABIES - Easter Bank Holiday 83 guitar tab

-------------------------------------------------------------------------------
            EASTER BANK HOLIDAY 83 - Peter And The Test Tube Babies
-------------------------------------------------------------------------------

by DJOLE fatdjole@ptt.yu

   Intro
E|-----------------------------------------------------------------|
B|-----------------------------------------------------------------|
C|--10--10-9---10--10-9---10--10-9---10--10-9----------------------|
D|--10--10-9---10--10-9---10--10-9---10--10-9----------------------|
A|--8---8--7---8---8--7---8---8--7---8---8--7----------------------|
E|-----------------------------------------------------------------|

    Verse
E|--------------------------------------------------------------------|
B|--------------------------------------------------------------------|
C|--7-7--7-7---10-10-10-10--9-9-9-------------------------------------|
D|--7-7--7-7---10-10-10-10--9-9-9-------------------------------------|x4
A|--5-5--5-5---8--8--8--8---7-7-7-------------------------------------|
E|--------------------------------------------------------------------|

   Chorus
E|--------------------------------------------------------------------|
B|--------------------------------------------------------------------|
C|--------------------------------------------------------------------|
D|----7-7---7-8-7-5---------------------------------------------------|x4
A|--5----------------8-7-5--------------------------------------------|
E|--------------------------8-7---------------------------------------|

   Intro  ->

   Verse  ->

   Chorus ->

E|--------------------------------------------------------------------|
B|--------------------------------------------------------------------|
C|--10-10-10-10-10---9-9-9-9------------------------------------------|
D|--10-10-10-10-10---9-9-9-9------------------------------------------|x4
A|--8--8--8--8--8----7-7-7-7------------------------------------------|
E|--------------------------------------------------------------------|

E|-----------------------------------------------------------------|
B|-----------------------------10----------------------------------|
C|----------7--10-9------------------------------------------------|
D|--12--7----------------12----7-----------------------------------|
A|-----------------------------------------------------------------|
E|-----------------------------------------------------------------|

   Verse  ->

   Chorus ->

   Intro  ->

   Chorus (Outro)
E|--------------------------------------------------------------------|
B|--------------------------------------------------------------------|
C|--------------------------------------------------------------------|
D|----7-7---7-8-7-5---------------------------------------------------|x3
A|--5----------------8-7-5--------------------------------------------|
E|--------------------------8-7---------------------------------------|

E|-----------------------------------------------------------------||
B|-----------------------------------------------------------------||
C|-----------------------------------------------------------------||
D|----7-7--7-8-7----8-7--8-7--8-7--8-7--8-7--8-7--8-7-5------------||
A|--5-----------------------------------------------------8-7--5---||
E|-----------------------------------------------------------------||
Добавлено: 08.06.2015
Другие материалы по этой песне:
  • Аккорды и текст

Страница создана 16.04.2012
http://primanota.ru/peter-and-the-test-tube-babies/easter-bank-holiday-83-chords.htm
Привет, Гость.
Предлагаем пройти революционный курс по гитаре.
Подарок от PrimaNota.Ru, забирай!