PrimaNota.ru - самый крупный в мире бесплатный архив песенных текстов, аккордов, табулатур и нот


Peter And The Test Tube Babies - Blown Out Again - текст песни, таба, видео

Регистрация Запомнить меня
Войти через:  Facebook Google Twitter Vk Yandex Mail.ru

Peter And The Test Tube Babies - Blown Out Again - текст песни, таба, видео

Печатать
Просмотров: 92
Авторы: Mark Hoggins, Peter Bywaters, Derek Greening, Chris Marchant
Авторы музыки: Christopher Edwin Blastock

-------------------------------------------------------------------------------
               BLOWN OUT AGAIN - Peter And The Test Tube Babies
-------------------------------------------------------------------------------

by DJOLE fatdjole@ptt.yu

   Intro
E|-----------------------------------------------------------------|
B|-----------------------------------------------------------------|
C|--10-10-10----------10-10----12-12-12----------12-12---13-13-13--|
D|-----------10-10-10-------------------10-10-10-------------------|
A|-----------------------------------------------------------------|
E|-----------------------------------------------------------------|
                                                                    |x4
E|------------------------------------------------------------------|
B|------------------------------------------------------------------|
C|-----------13-13---12-12-12----------12-12------------------------|
D|--10-10-10------------------10-10-10------------------------------|
A|------------------------------------------------------------------|
E|------------------------------------------------------------------|

E|--------------------------------------------------------------------|
B|--------------------------------------------------------------------|
C|--10----10---12----12---13-12-10---12----12-------------------------|
D|-----10---------13--------------------13----------------------------|x4
A|--------------------------------------------------------------------|
E|--------------------------------------------------------------------|

   Verse
E|--------------------------------------------------------------------|
B|--------------------------------------------------------------------|
C|--------------------------------------------------------------------|
D|--5-5--6-6-6-6-6---6-6-6-6-6-6-6------------------------------------|x2
A|--3-3--4-4-4-4-4---6-6-6-6-6-6-6------------------------------------|
E|-------------------4-4-4-4-4-4-4------------------------------------|

E|--------------------------------------------------------------------|
B|--------------------------------------------------------------------|
C|--------------------------------------------------------------------|
D|--5-5-5-5--6-6-6-6-6--6-6-6-6-6--5-5-5------------------------------|x2
A|--3-3-3-3--4-4-4-4-4--6-6-6-6-6--5-5-5------------------------------|
E|----------------------4-4-4-4-4--3-3-3------------------------------|

   Chorus
E|-----------------------------------------------------------------|
B|-----------------------------------------------------------------|
C|-----------------------------------------------------------------|
D|--8-8-8-8--6-6-6-6--8-8-8-8-8-8-8-----8-8-8-8--6-6-6-6-----------|
A|--8-8-8-8--4-4-4-4--6-6-6-6-6-6-6-----8-8-8-8--4-4-4-4-----------|
E|--6-6-6-6-----------------------------6-6-6-6--------------------|

E|-----------------------------------------------------------------|
B|-----------------------------------------------------------------|
C|-----------------------------------------------------------------|
D|--8-8-8-8-8-8-8-8-8-8-8------------------------------------------|
A|--6-6-6-6-6-6-6-6-6-6-6------------------------------------------|
E|-----------------------------------------------------------------|

   Bridge
E|--------------------------------------------------------------------|
B|--------------------------------------------------------------------|
C|--10----10---12----12---13-12-10---12----12-------------------------|
D|-----10---------13--------------------13----------------------------|x2
A|--------------------------------------------------------------------|
E|--------------------------------------------------------------------|

   Verse  ->

   Chorus ->

   Solo
E|-----------------------------------------------------------------|
B|-----------------------------------------------------------------|
C|--12----------12----15----13-12-------13-12----------------------|
D|-----13----------13-------------13----------13-13-15--15-13-15---|
A|--------13-------------------------------------------------------|
E|-----------------------------------------------------------------|

E|-----------------------------------------------------------------|
B|-----------------------------------------------------------------|
C|--13-12---------13-12--------13-12-15---13-12--------------------|
D|--------13--15-------13--15-------------------15---15-13---------|
A|-----------------------------------------------------------------|
E|-----------------------------------------------------------------|

   Bridge ->

   Verse  ->

   Chorus ->

   Solo   ->

   Solo 2
E|-----------------------------------------------------------------|
B|-----------------------------------------------------------------|
C|--8----8----8----8----8--12--------8--12--------8--12------------|
D|--8----8----8----8----8-----13-----8-----13-----8-----13---------|
A|--6----6----6----6----6--------13--6--------13--6--------13------|
E|-----------------------------------------------------------------|

E|-----------------------------------------------------------------|
B|-----------------------------------------------------------------|
C|--12-----------12----------12----15-------13-12-------13-12------|
D|-----13-----------13----------13----------------13---------------|
A|--------13-----------13------------------------------------------|
E|-----------------------------------------------------------------|

E|-----------------------------------------------------------------|
B|-----------------------------------------------------------------|
C|--13-13-15--15-13-15---13-12------13-12------13-12------13-12----|
D|-----------------------------13---------13---------13---------13-|
A|-----------------------------------------------------------------|
E|-----------------------------------------------------------------|

E|-----------------------------------------------------------------|
B|-----------------------------------------------------------------|
C|-----------------------------------------------------------------|
D|--13-12-----13-12------13-12------13-12-----13-12-----13-12------|
A|--------13--------13---------13---------13--------13--------13---|
E|-----------------------------------------------------------------|

E|-----------------------------------------------------------------|
B|--16--16-16-16-15-16---16-16-16-16-15-16----16-16-16-16-15--16---|
C|-----------------------------------------------------------------|
D|-----------------------------------------------------------------|
A|-----------------------------------------------------------------|
E|-----------------------------------------------------------------|

   Outro
E|--------------------------------------------------------------------|
B|--------------------------------------------------------------------|
C|--------------------------------------------------------------------|
D|--8-8-8-8-8--6-6-6-6-6--6-6-6-6-6--8-8-8-8-8------------------------|x2
A|--6-6-6-6-6--4-4-4-4-4--6-6-6-6-6--8-8-8-8-8------------------------|
E|------------------------4-4-4-4-4--6-6-6-6-6------------------------|

E|-----------------------------------------------------------------|
B|-----------------------------------------------------------------|
C|--15-13-12--15-13-12--15-13-12--15-13-12--15-13-12--15-13-12--15-|
D|-----------------------------------------------------------------|
A|-----------------------------------------------------------------|
E|-----------------------------------------------------------------|

E|-----------------------------------------------------------------||
B|-----------------------------------------------------------------||
C|--13-12-----13-12-------13-12-----13-12------13-12---------------||
D|--------13--------13----------13--------13---------13------------||
A|-----------------------------------------------------------------||
E|-----------------------------------------------------------------||
Добавлено: 08.06.2015
Другие материалы по этой песне:
  • Аккорды и текст

Страница создана 14.06.2012
http://primanota.ru/peter-and-the-test-tube-babies/blown-out-again-chords.htm
Привет, Гость.
Предлагаем пройти революционный курс по гитаре.
Подарок от PrimaNota.Ru, забирай!