PrimaNota.ru - самый крупный в мире бесплатный архив песенных текстов, аккордов, табулатур и нот


Peter And The Test-tube Babies - Transvestite - таба, видео

Регистрация Запомнить меня
Войти через:  Facebook Google Twitter Vk Yandex Mail.ru

Peter And The Test-tube Babies - Transvestite - таба, видео

Печатать
Просмотров: 71
This is my first tab so sorry if it's not 100% right.
I couldn't find the tab for this anywhere so i figured i'd do it myself.

INTRO
  Em      Dm           
e|------7-------5-|             
B|----8-------6---|             
G|--9-------7-----|    
D|9-------7-------|   
A|----------------|             
E|----------------| 
  1 & 2 & 3 & 4 &

VERSE
  Em      Dm                   B5               A5
e|------7-------5-|           |----------------|----------------|
B|----8-------6---|play       |----------------|----------------|
G|--9-------7-----|until      |----------------|----------------|  
D|9-------7-------|the        |9-9-9-9-9-9-9-9-|7~~~~~~~~~~~~~~-| 
A|----------------|change     |9-9-9-9-9-9-9-9-|7~~~~~~~~~~~~~~-|  
E|----------------|           |7-7-7-7-7-7-7-7-|5~~~~~~~~~~~~~~-|  
  1 & 2 & 3 & 4 &              1 & 2 & 3 & 4 &  1 & 2 & 3 & 4 &

SOLO

e|----------------|----------------|----------------|----------------|
B|----------------|----------------|----------------|----------------|
G|9---9---9-7-----|7---------------|9---9---9-7-----|7~------------7-|
D|------------10--|----10--7~------|------------10--|------------10--|
A|----------------|----------------|----------------|----------------|
E|----------------|----------------|----------------|----------------|
  1 & 2 & 3 & 4 &  1 & 2 & 3 & 4 &  1 & 2 & 3 & 4 &  1 & 2 & 3 & 4 &

e|----------------|----------------|----------------|----------------|
B|----------------|----------------|----------------|----------------|
G|9---9---9-7-----|7---------------|--7---7---------|----------------|
D|------------10--|----10--7~------|10--10--10--5---|7~~~~~~~~~~~~~~~|
A|----------------|----------------|----------------|----------------|
E|----------------|----------------|----------------|----------------|
  1 & 2 & 3 & 4 &  1 & 2 & 3 & 4 &  1 & 2 & 3 & 4 &  1 & 2 & 3 & 4 &


OUTRO VERSES 

(But there's something...)
  A5               B5
e|----------------|----------------|
B|----------------|----------------|
G|----------------|----------------|
D|7-7-7-7-7-7-7-7-|9-9-9-9-9-9-9-9-|play twice
A|7-7-7-7-7-7-7-7-|9-9-9-9-9-9-9-9-|
E|5-5-5-5-5-5-5-5-|7-7-7-7-7-7-7-7-|
  1 & 2 & 3 & 4 &  1 & 2 & 3 & 4 & 


 B5 A5 G5 B5 A5 G5 B5 A5 G5 B5 A5 G5
e|----------------|----------------|
B|----------------|----------------|
G|----------------|----------------|
D|9-7-5---9-7-5---|9-7-5---9-7-5---|
A|9-7-5---9-7-5---|9-7-5---9-7-5---|
E|7-5-3---7-5-3---|7-5-3---7-5-3---|
  1 & 2 & 3 & 4 &  1 & 2 & 3 & 4 & 

  B5               A5               G5
e|----------------|----------------|----------------|----------------|
B|----------------|----------------|----------------|----------------|play
G|----------------|----------------|----------------|----------------|four 
D|9-9-9-9-9-9-9-9-|7-7-7-7-7-7-7-7-|5-5-5-5-5-5-5-5-|5-5-5-5-5-5-5-5-|times
A|9-9-9-9-9-9-9-9-|7-7-7-7-7-7-7-7-|5-5-5-5-5-5-5-5-|5-5-5-5-5-5-5-5-|
E|7-7-7-7-7-7-7-7-|5-5-5-5-5-5-5-5-|3-3-3-3-3-3-3-3-|3-3-3-3-3-3-3-3-|
  1 & 2 & 3 & 4 &  1 & 2 & 3 & 4 &  1 & 2 & 3 & 4 &  1 & 2 & 3 & 4 & 

 B5 A5 G5 B5 A5 G5 B5 A5 G5 B5 A5 G5
e|----------------|----------------|
B|----------------|----------------|
G|----------------|----------------|
D|9-7-5---9-7-5---|9-7-5---9-7-5---|
A|9-7-5---9-7-5---|9-7-5---9-7-5---|
E|7-5-3---7-5-3---|7-5-3---7-5-3---|
  1 & 2 & 3 & 4 &  1 & 2 & 3 & 4 & 

  B5               A5               G5
e|----------------|----------------|----------------|----------------|
B|----------------|----------------|----------------|----------------|play
G|----------------|----------------|----------------|----------------|four 
D|9-9-9-9-9-9-9-9-|7-7-7-7-7-7-7-7-|5-5-5-5-5-5-5-5-|5-5-5-5-5-5-5-5-|times
A|9-9-9-9-9-9-9-9-|7-7-7-7-7-7-7-7-|5-5-5-5-5-5-5-5-|5-5-5-5-5-5-5-5-|
E|7-7-7-7-7-7-7-7-|5-5-5-5-5-5-5-5-|3-3-3-3-3-3-3-3-|3-3-3-3-3-3-3-3-|
  1 & 2 & 3 & 4 &  1 & 2 & 3 & 4 &  1 & 2 & 3 & 4 &  1 & 2 & 3 & 4 & 

 B5 A5 G5 B5 A5 G5 B5 A5 G5 B5 A5 G5
e|----------------|----------------|----------------|
B|----------------|----------------|----------------|
G|----------------|----------------|----------------|
D|9-7-5---9-7-5---|9-7-5---9-7-5~~~|5---------------|
A|9-7-5---9-7-5---|9-7-5---9-7-5~~~|5---------------|
E|7-5-3---7-5-3---|7-5-3---7-5-3~~~|3---------------|
  1 & 2 & 3 & 4 &  1 & 2 & 3 & 4 &  1 & 2 & 3 & 4 &


         
Добавлено: 20.09.2013
Другие материалы по этой песне:
  • Аккорды и текст

Страница создана 20.09.2013
http://primanota.ru/peter-and-the-test-tube-babies-2/transvestite-chords.htm
Привет, Гость.
Предлагаем пройти революционный курс по гитаре.
Подарок от PrimaNota.Ru, забирай!