PrimaNota.ru - самый крупный в мире бесплатный архив песенных текстов, аккордов, табулатур и нот


Peter And The Test-tube Babies - Banned From The Pubs - таба, видео

Регистрация Запомнить меня
Войти через:  Facebook Google Twitter Vk Yandex Mail.ru

Peter And The Test-tube Babies - Banned From The Pubs - таба, видео

Печатать
Просмотров: 71
-----------------------------------------------------------------
Banned From The Pubs - Peter & The Test Tube Babies
-----------------------------------------------------------------
Tabbed by: Dillon
Email: Angelic_oioi_upstart@yahoo.com

Tuning:Standard

Intro:
e|---------------------------------------------------------------|
B|---------------------------------------------------------------|
G|---------7-----------------------7-----------------------------|
D|-5--5--5-778-------------5--5--5-7-7-8-------------------------|
A|-5--5--5-578-(3 Times)---5--5--5-5-7-8-------------------------|
E|-3--3--3--56-------------3--3--3---5-6-------------------------|

Verse:
e|---------------------------------------------------------------|
B|---------------------------------------------------------------|
G|---------7-----------------------------------------------------|
D|-5555555-778-5555----------------------------------------------|
A|-5555555-578-5555----------------------------------------------|
E|-3333333--56-3333----------------------------------------------|

Chorus:
e|---------------------------------------------------------------|
B|---------------------------------------------------------------|
G|-3333-5555-7-----------------7-------7-------------------------|
D|-3333-5555-7785555-----------7785555-778---5-------------------|
A|-1111-3333-5785555-(2 times)-5785555-578---5-------------------|
E|------------563333------------563333--56---3-------------------|

| / slide up
| \ slide down
| h hammer-on
| p pull-off
| ~ vibrato
| + harmonic
| x Mute note
Добавлено: 07.12.2013
Другие материалы по этой песне:
  • Аккорды и текст

Страница создана 07.12.2013
http://primanota.ru/peter-and-the-test-tube-babies-2/banned-from-the-pubs-chords.htm
Привет, Гость.
Предлагаем пройти революционный курс по гитаре.
Подарок от PrimaNota.Ru, забирай!