PrimaNota.ru - самый крупный в мире бесплатный архив песенных текстов, аккордов, табулатур и нот


Pete Parkkonen - 4th Of December - таба, видео

Регистрация Запомнить меня
Войти через:  Facebook Google Twitter Vk Yandex Mail.ru

Pete Parkkonen - 4th Of December - таба, видео

Печатать
Просмотров: 83
-------------------------------------------------------------------------
4TH OF DECEMBER – Pete Parkkonen
-------------------------------------------------------------------------
Tabbed by: Kengus

Standard tuning

INTRO                                               VERSE1
   F
e|-------------------------------------------------|---------------------|
B|-------------------------------------------------|---------------------|
G|-------2-----------2-----------2-----------2-----|-------2-----------2-|
D|-----3---3-------3---3-------3---3-------3---3---|-----3---3-------3---|
A|---3-------3---3-------3---3-------3---3-------3-|---3-------3---3-----|
E|-1-----------1-----------1-----------1-----------|-1-----------1-------|
        A7sus2#5/B               Gm7add2/A#               F
e|-----------------------------------------------------------------------|
B|-----------------------------------------------------------------------|
G|--------0---2---0---0---2---0----0---2---0---0---2---0--------2--------|
D|-3--------3---3-------3---3--------3---3-------3---3--------3---3------|
A|---3--2-----------2------------1-----------1--------------3-------3---3|
E|--------------------------------------------------------1-----------1--|
                                    A7sus2#5/B               Gm7add2/A#
e|-----------------------------------------------------------------------|
B|-----------------------------------------------------------------------|
G|---2-----------2-----------2--------0---2---0---0---2---0----0---2---0-|
D|-3---3-------3---3-------3---3--------3---3-------3---3--------3---3---|
A|-------3---3-------3---3-------3--2-----------2------------1-----------|
E|---------1-----------1-------------------------------------------------|
                                                PRE-CHORUS
                A7sus2#5/B   A                   Dm           Am
e|---------------------------------------5-----|-------1-----------------|
B|-----------------------------------------5---|-----3---3----------1----|
G|---0---2---0----0---2---0----------6-------6-|---2-------2----0-2---2-0|
D|-----3---3--------3---3--------7-----7-------|-0-----------------------|
A|-1------------2--------------7---7-----------|--------------0----------|
E|---------------------------5-----------------|-------------------------|
             VERSE2
   D#        F                        A7sus2#5/B               Gm7add2/A#
e|---------|-------------------------------------------------------------|
B|-------1-|-------------------------------------------------------------|
G|---2-0---|-------2-----------2--------0---2---0---0---2---0----0---2---|
D|-1-------|-----3---3-------3---3--------3---3-------3---3--------3---3-|
A|---------|---3-------3---3-------3--2-----------2------------1---------|
E|---------|-1-----------1-----------------------------------------------|
                  F                                                A7sus2#5/B
e|-----------------------------------------------------------------------|
B|-----------------------------------------------------------------------|
G|-0---0---2---0--------2-----------2-----------2-----------2--------0---|
D|-------3---3--------3---3-------3---3-------3---3-------3---3--------3-|
A|---1--------------3-------3---3-------3---3-------3---3-------3--2-----|
E|----------------1-----------1-----------1-----------1------------------|
                      Gm7add2/A#               A7sus2#5/B   A
e|------------------------------------------------------------------0----|
B|--------------------------------------------------------------2-----2--|
G|-2---0---0---2---0----0---2---0---0---2---0----0---2---0----2---2-----2|
D|---3-------3---3--------3---3-------3---3--------3---3-----------------|
A|-------2------------1-----------1------------2------------0------------|
E|-----------------------------------------------------------------------|

VERSE1
Fourth, fourth of December, now I remember, how to be alone
What for did I send her away, trying to defend her
This is all I gotta say

PRE-CHORUS
Ah-a-a-a-a-a-I, I've gotta learn a lot

VERSE2
Fourth, fourth of December, I wrote a letter, again return to sender
Therefore, all that temper, and there's no other, hmmm-mmm

CHORUS
Dm           Am            D#                   Dm      Am
Ah-a-a-a-a-a-I, I've gotta learn a lot, but will I ever learn?
D#       Bb
Probably not

INTERLUDE
   F                        G7                       Bb
e|--------------------------------------1------------------1-------------|
B|---------------------1--------0-1-0-------0-1-0--------3---1-3-----3---|
G|-------2-----------2--------0-------0---0-------0----3-----------3-----|
D|-----3---3-------3-----3-----------------------------------------------|
A|---3-------3---3-----------------------------------1-----------1-------|
E|-1-----------1------------3--------------------------------------------|
          A7sus2#5/B   A
e|---------------------------------5-----|
B|-1-3-------------------------------5---|
G|-----3----0---2---0----------6-------6-|
D|------------3---3--------7-----7-------|
A|--------2--------------7---7-----------|
E|---------------------5-----------------|

CHORUS
Dm           Am            D#
Ah-a-a-a-a-a-I, I've gotta learn a lot
D#m          Bbm           E
Ah-a-a-a-a-a-I, I've gotta learn a lot
        D#m     Bbm    E        B
But will I ever learn? Probably not

VERSE3
   F#                       G#7/C                    G#m7/B
e|-----------------------------------------------------------------------|
B|-----------------------------------------------------------------------|
G|-------3-----------3--------1---3---1---1---3---1----1---3---1---1---3-|
D|-----4---4-------4---4--------4---4-------4---4--------4---4-------4---|
A|---4-------4---4-------4--3-----------3------------2-----------2-------|
E|-2-----------2---------------------------------------------------------|
        F#
e|-----------------------------------------------------------------------|
B|-----------------------------------------------------------------------|
G|---1-------------------------------------------------------------------|
D|-4--------4-------+9---------------------------------------------------|
A|--------4------+9------------------------------------------------------|
E|------2----------------------------------------------------------------|

F#                 G#7/C            G#m7/B     F#
Fourth, fourth of December, now I remember, hmmm.

=========================================================================
Добавлено: 30.07.2012
Другие материалы по этой песне:
  • Аккорды и текст

Страница создана 30.07.2012
http://primanota.ru/pete-parkkonen/4th-of-december-chords.htm
Привет, Гость.
Предлагаем пройти революционный курс по гитаре.
Подарок от PrimaNota.Ru, забирай!