PrimaNota.ru - самый крупный в мире бесплатный архив песенных текстов, аккордов, табулатур и нот


Pete Korving - El Nido - таба, видео

Регистрация Запомнить меня
Войти через:  Facebook Google Twitter Vk Yandex Mail.ru

Pete Korving - El Nido - таба, видео

Печатать
Просмотров: 111
EL NIDO (The Nest): PETE KORVING (A.H. Hofman) 4/4 - 100

http://www.petekorvingfanpage.nl/

https://www.youtube.com/watch?v=NVA1GFz0f_g

|%    |: Repeat the previous Chord and Measure of 4-counts.
/\/\/  : up and down rhythm.

Intro:

  /\/\/    /\/\/    /\/\/
 |A       |%       |%       |
e|9----7-5------------------|
b|--------------------------|
g|---------6----4-2---------|
d|-------------------------2|
a|------------------4----2--|
e|--------------------------|

Verse 1:

 |A    |E       |A     |%     |%     |E       |A      |A7   |
e|----------------------------------------------------------|
b|---------0-2-0-------------------------0-2-0---------2----|
g|2-----1--------2-------------2------1--------2---2-4-----2|
d|------------------2-4-2---2-------------------------------|
a|----------------------------------------------------------|
e|----------------------------------------------------------|

 |D    |%       |A    |%     |%     |E       |A      |E     |
e|---------2-0----------------------------------------------|
b|3-----3------3-2----------------------0-2-0--------------5|
g|-------------------4-2------2------1--------2-------------|
d|--------------------------2---------------------2-4-2-----|
a|----------------------------------------------------------|
e|----------------------------------------------------------|

Verse 2:

 |A   |E       |A      |%    |%    |E       |A       |A7    |
e|5----4--7-9-7---------------5---5-4--7-9-7----------------|
b|--------------10--5-7-5---5----------------10-10-12-14--10|
g|----------------------------------------------------------|
d|----------------------------------------------------------|
a|----------------------------------------------------------|
e|----------------------------------------------------------|

 |D   |%        |A     |%    |%    |E       |A        |A7   |
e|10----14-12-----------------5-----4--7-9-7-----------9----|
b|------------15-14--12-10--5----------------10--10-12------|
g|----------------------------------------------------------|
d|----------------------------------------------------------|
a|----------------------------------------------------------|
e|----------------------------------------------------------|

Chorus:

  /\/\/      /\/\/      /\/\/     /\/\/     /\/\/    /\/\/
 |D         |%         |A        |%        |E       |%      |
e|10---------10---------9---------9---------7--------7------|
b|----12-10------12-10-----12-10-----12-10-----10-9-----10-9|
g|----------------------------------------------------------|
d|----------------------------------------------------------|
a|----------------------------------------------------------|
e|----------------------------------------------------------|

                         /\/\          /\/\
 |A              |A7    |D            |%           |
e|--------------7-9------10--14-12-10--10--14-12-10|
b|10--9-10-9-10------------------------------------|
g|-------------------------------------------------|
d|-------------------------------------------------|
a|-------------------------------------------------|
e|-------------------------------------------------|

  /\/\       /\/\       /\/\      /\/\
 |A         |%         |E        |%        |A      |F    |
e|9---12-10--9---12-10--7---10-9--7---10-9--5---5-4-5----|
b|-------------------------------------------------------|
g|-------------------------------------------------------|
d|-------------------------------------------------------|
a|-------------------------------------------------------|
e|------------------------------------------------------1|

Verse 3:

 |Bb   |F       |Bb     |%       |%   |F       |Bb    |Bb7  |
e|----------------------------------------------------------|
b|----------------------------------------------------------|
g|----------------------------------------------------------|
d|----------------------------------------------------------|
a|1-----0--3-5-3-1----------------1----0--3-5-3-1----3-5---1|
e|-------------------1-3--1---1-1---------------------------|

 |Eb   |%       |Bb   |%      |%     |F       |Bb     |F    |
e|----------------------------------------------------------|
b|----------------------------------------------------------|
g|----------------------------------------------------------|
d|1------1-5-3-1-0-----------------------------------------3|
a|-------------------3-1-------1------0--3-5-3-1------------|
e|--------------------------1----------------------1-3-1----|

Bridge + Outro:

 |Bb   |F       |Bb     |F     |Bb    |F        |Bb    |
e|------------------------------6------5--8-10-8-------|
b|-----------3----------------6------------------11----|
g|3-----2--5---5-3-------------------------------------|
d|-------------------3-5-3-----------------------------|
a|-----------------------------------------------------|
e|-----------------------------------------------------|

  /\/\/     /\/\/    /\/\/  /  / (break)
 |Bb       |%       |%      F7|Bb      |
e|10---8-6-----------------------------|
b|-------------------------------------|
g|----------7---5-3--------------------|
d|-------------------------------------|
a|-------------------5----3----1-------|
e|--------------------------1----------|


Tab by: DAIRYBEAT (André H. Hofman, Purmerend, Netherlands).
FREE* Dairybeat ORIGINALS, COVERS and BACKING TRACKS on:
http://www.soundclick.com/bands/default.cfm?bandID=137360&content=music
https://soundcloud.com/dairybeat
https://www.youtube.com/user/Dairybeat
Добавлено: 07.06.2015
Другие материалы по этой песне:
  • Аккорды и текст

Страница создана 07.06.2015
http://primanota.ru/pete-korving/el-nido-chords.htm
Привет, Гость.
Предлагаем пройти революционный курс по гитаре.
Подарок от PrimaNota.Ru, забирай!