PrimaNota.ru - самый крупный в мире бесплатный архив песенных текстов, аккордов, табулатур и нот


Petal - The New Year - таба, видео

Регистрация Запомнить меня
Войти через:  Facebook Google Twitter Vk Yandex Mail.ru

Petal - The New Year - таба, видео

Печатать
Просмотров: 140
Уроки эстрадного вокала в Санкт-Петербурге
-------------------------------------------------------------------------------
     Petal ft. Modern Baseball // The New Year (Death Cab for Cutie Cover)
https://www.facebook.com/petalPA // (https://www.youtube.com/watch?v=ic5mTVCsiD0)
-------------------------------------------------------------------------------
Tabbed by: Oriel Sanchez
E-mail: orielbenitosanchez@gmail.com

Lead:   DADGCe | CAPO 4
Rhythm: EADGBe | None

Lead //

Intro:
e|--------------------------------------------|
C|-------0----------0----------0----------0---|
G|-----0----------0----------0----------0-----|
D|---5----------5----------5----------5-------|
A|-3----------3----------3----------3---------|
D|--------------------------------------------|

e|--------------------------------------------|
C|---------0----------0----------0----------0-|
G|------0----------0----------0----------0----|
D|---5----------5----------5----------5-------|
A|-0----------0----------0----------0---------|
D|--------------------------------------------|

X2

Verse:
e|--------------------------------------------|
C|-------0----------0----------0----------0---|
G|-----0----------0----------0----------0-----|
D|---5----------5----------5----------5-------|
A|-3----------3----------3----------3---------|
D|--------------------------------------------|

e|--------------------------------------------|
C|---------0----------0----------0----------0-|
G|------0----------0----------0----------0----|
D|---5----------5----------5----------5-------|
A|-0----------0----------0----------0---------|
D|--------------------------------------------|

e|--------------------------------------------|
C|-------0----------0----------0----------0---|
G|-----0----------0----------0----------0-----|
D|---5----------5----------5----------5-------|
A|-3----------3----------3----------3---------|
D|--------------------------------------------|

e|--------------------------------------------|
C|-------0-----------0---------0--------------|
G|-----0----------0----------0-----------2p0--|
D|---5----------5----------5--------2p0-------|
A|-0----------0----------0--------------------|
D|--------------------------------------------|


Interlude:
e|--------------------------------------------|
C|-------0--------2p0----------0--------2p0---|
G|-----0--------0------------0--------0-------|
D|---0----------0----------0----------0-------|
A|-3----------3----------3----------3---------|
D|--------------------------------------------|

e|-------0-------------------0----------------|
C|----------------0---------------------0-----|
G|-----0--------0----------0----------0-------|
D|-----0--------0----------0----------0-------|
A|---3--------3----------3----------3---------|
D|-2--------2----------2----------2-----------|

x2

Verse 2
e|--------------------------------------------|
C|-------0----------0----------0----------0---|
G|-----0----------0----------0----------0-----|
D|---5----------5----------5----------5-------|
A|-3----------3----------3----------3---------|
D|--------------------------------------------|

e|-------0---------------------0--------------|
C|-----------------0----------------------0---|
G|-----0---------0-----------0----------0-----|
D|---5----------5----------5----------5-------|
A|-0----------0----------0----------0---------|
D|--------------------------------------------|

e|--------------------------------------------|
C|-------0----------0----------0----------0---|
G|-----0----------0----------0----------0-----|
D|---5----------5----------5----------5-------|
A|-3----------3----------3----------3---------|
D|--------------------------------------------|

e|-------0---------------------0--------------|
C|-----------------0----------------------0---|
G|-----0---------0-----------0----------0-----|
D|---5----------5----------5----------5-------|
A|-0----------0----------0----------0---------|
D|--------------------------------------------|

e|--------------------------------------------|
C|-------0----------0----------0----------0---|
G|-----0----------0----------0----------0-----|
D|---5----------5----------5----------5-------|
A|-3----------3----------3----------3---------|
D|--------------------------------------------|

e|-------0---------------------0--------------|
C|-----------------0----------------------0---|
G|-----0---------0-----------0----------0-----|
D|---5----------5----------5----------5-------|
A|-0----------0----------0----------0---------|
D|--------------------------------------------|

e|--------------------------------------------|
C|-------0----------0----------0----------0---|
G|-----0----------0----------0----------0-----|
D|---5----------5----------5----------5-------|
A|-3----------3----------3----------3---------|
D|--------------------------------------------|

e|--------0---------0-------------------------|
C|---------------------------2/4p0------------|
G|------0---------0--------0-------2p0--------|
D|---5----------5-----------------------------|
A|-0----------0----------0-------------3------|
D|--------------------------------------------|

Bridge:
e|--------------------------------------------|
C|-------0--------0----------0----------0-----|
G|-----0--------0----------0----------0-------|
D|-----0--------0----------0----------0-------|
A|---3--------3----------3----------3---------|
D|-0--------0----------0----------0-----------|

e|--------------------------------------------|
C|-------0--------0----------0----------0-----|
G|-----0--------0----------0----------0-------|
D|-----0--------0----------0----------0-------|
A|---3--------3----------3----------3---------|
D|-2--------2----------2----------2-----------|

x6

Outro:
e|--------------------------------------------|
C|-------0----------0----------0----------0---|
G|-----0----------0----------0----------0-----|
D|---5----------5----------5----------5-------|
A|-3----------3----------3----------3---------|
D|--------------------------------------------|

e|--------------------------------------------|
C|---------0----------0----------0----------0-|
G|------0----------0----------0----------0----|
D|---5----------5----------5----------5-------|
A|-0----------0----------0----------0---------|
D|--------------------------------------------|

x2

End with:
e|--------------------------------------------|
C|-------0----------0----------0----------0---|
G|-----0----------0----------0----------0-----|
D|---5----------5----------5----------5-------|
A|-3----------3----------3----------3---------|
D|--------------------------------------------|

-----------------------------------------------------------

Rhythm //

E: 022100
D: x466xx
A: x02200
B: x244xx

Intro:     E-E-D-D X2
Verse:     E-E-D-D X4
Interlude: A-A-B-B X2
Verse 2:   E-E-D-D X4
Bridge:    A-A-B-B x6
Outro:     E-E-D-D x4

************************************

| /   slide up
| \   slide down
| h   hammer-on
| p   pull-off
| ~   vibrato
| +   harmonic
| x   Mute note
| b   Bend
| pb  Pre-bend
| br  Bend release
| pbr Pre-bend release
| brb Bend release bend

************************************
Добавлено: 22.07.2015
Другие материалы по этой песне:
  • Аккорды и текст

Страница создана 22.07.2015
http://primanota.ru/petal/new-year-chords.htm
Привет, Гость.
Предлагаем пройти революционный курс по гитаре.
Подарок от PrimaNota.Ru, забирай!