PrimaNota.ru - самый крупный в мире бесплатный архив песенных текстов, аккордов, табулатур и нот


Pet Symmetry - Please Dont Tell My Father - таба, видео

Регистрация Запомнить меня
Войти через:  Facebook Google Twitter Vk Yandex Mail.ru

Pet Symmetry - Please Dont Tell My Father - таба, видео

Печатать
Просмотров: 76
-------------------------------------------------------------------------------
         Please Don't Tell My Father That I Used His 1996 Honda Accord 
           to Destroy the Town of Willow Grove, Pennsylvania in 2002 
                                  - Pet Symmetry
-------------------------------------------------------------------------------
Tabbed by: callyjohnwell
E-mail: callyjohnwell@gmail.com

Tuning: EADGBe (CAPO ON 2nd FRET)

Intro: "The first time I stole my father's keys..."
e|--------------0------0-----------------------------------------------------|
B|---1---1------1------1-----------------------------------------------------|
G|---2---0------0------0-----------------------------------------------------|
D|---3---3------2------0-----------------------------------------------------|
A|--------------3------2-----------------------------------------------------|
E|---1---1-------------3-----------------------------------------------------|


Build=up: "You could not see their street signs..." (Horn Melody)
e|----------------------------0------1-----------------0------1--------------|
B|---0------0------1---1------1------0------1---1------1------0--------------|
G|---0------0------2---0------0------0------2---0------0------0--------------|
D|---3------5------3---3------2------0------3---3------2------0--------------|
A|---3------5-----------------3------2-----------------3------2--------------|
E|---1------3------1---1-------------3------1---1-------------3--------------|


Verse: "Between the dumpster diving, vandalizing..." 
e|--------------0------0-----------------------------------------------------|
B|---1---1------1------1-----------------------------------------------------|
G|---2---0------0------0-----------------------------------------------------|
D|---3---3------2------0-----------------------------------------------------|
A|--------------3------2-----------------------------------------------------|
E|---1---1-------------3-----------------------------------------------------|


Chorus: "You could not see their street signs..."
e|---------------------------------------------------------------------------|
B|---0------0----------------------------------------------------------------|
G|---0------0------7---5------7---5------------------------------------------|
D|---3------5------5---5------5---5------------------------------------------|
A|---3------5------3---3------3---3------------------------------------------|
E|---1------3----------------------------------------------------------------|


Bridge: "Considered violent and reckless..."
        "Between the bong rips and knife hits..." 
e|---------------------------------------------------------------------------|
B|---1---1---1---1-----------------------------------------------------------|
G|---0---0---0---0-----------------------------------------------------------|
D|---2---0---2---0-----------------------------------------------------------|
A|---3---3---3---3-----------------------------------------------------------|
E|---------------------------------------------------------------------------|

"We occupied the space..."               "...Thing to lose"
e|---0---0---0---0-----------------------------------------------------------|
B|---1---1---1---1-----------------------1---1---1---1-----------------------|
G|---0---0---0---0-----------------------2---0---2---0--(last time)7-5--7-5--|
D|---0---0---0---0-----------------------3---3---3---3-------------5-5--5-5--|
A|---2---0---2---0-------------------------------------------------3-3--3-3--|
E|---3---3---3---3-----------------------1---1---1---1-----------------------|



************************************



| /   slide up
| \   slide down
| h   hammer-on
| p   pull-off
| ~   vibrato
| +   harmonic
| x   Mute note
| b   Bend
| pb  Pre-bend
| br  Bend release
| pbr Pre-bend release
| brb Bend release bend

************************************
Добавлено: 02.01.2016
Вам также может быть интересно:
Другие материалы по этой песне:
  • Аккорды и текст

Страница создана 02.01.2016
http://primanota.ru/pet-symmetry/please-dont-tell-my-father-chords.htm
Привет, Гость.
Предлагаем пройти революционный курс по гитаре.
Подарок от PrimaNota.Ru, забирай!