PrimaNota.ru - самый крупный в мире бесплатный архив песенных текстов, аккордов, табулатур и нот


Pet Shop Boys - One And One Make Five - текст песни, бас-таба, видео

Регистрация Запомнить меня
Войти через:  Facebook Google Twitter Vk Yandex Mail.ru

Pet Shop Boys - One And One Make Five - текст песни, бас-таба, видео

Печатать
Просмотров: 30
Уроки эстрадного вокала в Санкт-Петербурге
Авторы: Chris Lowe, Neil Tennant

Tabbed by: bassm99
E-mail: alanmatthews1966@yahoo.co.uk

Tuning: E, A, D, G

"One And One Make Five" from the album "Very" (1993)
Written by Neil Tennant/Chris Lowe

Bass Starts: 0:08

Intro: (Play Twice)

G|--------------------------------------------------------------------------|
D|--------------------------------------------------------------------------|
A|--1-1---1-1-1-1-1----3-3---3-3-3-3-3----5-5---5-5-5-5-5-------------------|
E|-----------------------------------------------------------5-5---5-5-5-5-5|

Verse: (Play Twice)

G|--------------------------------------------------------------------------|
D|--------------------------------------------------------------------------|
A|--1-1---1-1-1-1-1----3-3---3-3-3-3-3----5-5---5-5-5-5-5-------------------|
E|-----------------------------------------------------------5-5---5-5-5-5-5|

Chorus: (Play Twice)

G|--------------------------------------------------------------------------|
D|--------------------------------------------------------------------------|
A|--1-1---1-1-1-1-1----3-3---3-3-3-3-3----5-5---5-5-5-5-5-------------------|
E|-----------------------------------------------------------5-5---5-5-5-5-5|

Repeat Verse:

Repeat Chorus: (Play 3 Times)

First Bridge:

G|--------------------------------------------------------------------------|
D|------3-3-3-3-3-(x8)------------------------------------------------------|
A|------------------------1-1---1-1-1-1-1----3-3---3-3-3-3-3----------------|
E|--1-1---------------------------------------------------------------------|

G|--------------------------------------------------------------------------|
D|--------------------------------------------------------------------------|
A|--5-5---5-5-5-5-5---------------------------------------------------------|
E|---------------------5-5---5-5-5-5-5-(x2)---------------------------------|

Repeat Verse:

Repeat Chorus: (Play 4 Times)

Second Bridge: (Play 16 Times)

G|--------------------------------------------------------------------------|
D|------3-3-3-3-3-----------------------------------------------------------|
A|--------------------------------------------------------------------------|
E|--1-1---------------------------------------------------------------------|
Добавлено: 24.06.2017
Другие материалы по этой песне:
  • Аккорды и текст

Страница создана 21.05.2012
http://primanota.ru/pet-shop-boys/one-and-one-make-five-chords.htm
Привет, Гость.
Предлагаем пройти революционный курс по гитаре.
Подарок от PrimaNota.Ru, забирай!