PrimaNota.ru - самый крупный в мире бесплатный архив песенных текстов, аккордов, табулатур и нот


Pet Shop Boys - In The Night - текст песни, бас-таба, видео

Регистрация Запомнить меня
Войти через:  Facebook Google Twitter Vk Yandex Mail.ru

Pet Shop Boys - In The Night - текст песни, бас-таба, видео

Печатать
Просмотров: 26
Уроки эстрадного вокала в Санкт-Петербурге
Авторы: Chris Lowe, Neil Tennant

Tabbed by: bassm99
E-mail: alanmatthews1966@yahoo.co.uk

Tuning: E, A, D, G

"In The Night" from the single "Opportunities (Let's Make Lots Of Money)" (1985)
Written by Tennant/Lowe

Intro: (Play 6 Times)

G|---5-5-5-5---8-8-8-8-------------5-5-5-5----------------------------------|
D|-----------------------8-8-8-8--------------------------------------------|
A|--3-3-3-3---6-6-6-6-------------3-3-3-3-----------------------------------|
E|----------------------6-6-6-6---------------------------------------------|

Verse: (Play 5 Times)

G|---5-5-5-5---8-8-8-8-------------5-5-5-5----------------------------------|
D|-----------------------8-8-8-8--------------------------------------------|
A|--3-3-3-3---6-6-6-6-------------3-3-3-3-----------------------------------|
E|----------------------6-6-6-6---------------------------------------------|

Instrumental: (Play Twice)

G|---5-5-5-5---8-8-8-8-------------5-5-5-5----------------------------------|
D|-----------------------8-8-8-8--------------------------------------------|
A|--3-3-3-3---6-6-6-6-------------3-3-3-3-----------------------------------|
E|----------------------6-6-6-6---------------------------------------------|

Repeat Verse: (Play 3 Times)

Bass Stops: (2:09 - 2:10)

Repeat Instrumental:

Repeat Verse: (Play Once)

Chorus:

G|---8-8-8-8-------------5-5-----------5-5----------------------------------|
D|-------------8-8-8-8---------5---8---------5---8--------------------------|
A|--6-6-6-6-------------3-3-----------3-3-----------------------------------|
E|------------6-6-6-6---------3---6---------3---6---------------------------|

G|---8-8-8-8----------------------------------------------------------------|
D|-------------8-8-8-8---5-5-5-5-5-5-5-5------------------------------------|
A|--6-6-6-6-----------------------------------------------------------------|
E|------------6-6-6-6---3-3-3-3-3-3-3-3-------------------------------------|

Bass Stops: (3:06 - 3:23)

Restart Into Instrumental:

G|--------------------------------------------------------------------------|
D|---8----------------------------------------------------------------------|
A|--------------------------------------------------------------------------|
E|--6-6---------------------------------------------------------------------|

Repeat Instrumental:

Repeat Verse: (Play 4 Times)

Repeat Chorus:

End:

G|--------------------------------------------------------------------------|
D|--------------------------------------------------------------------------|
A|--3-3-3-3-3--1-3-1---3----------------------------------------------------|
E|--------------------------------------------------------------------------|
Добавлено: 24.06.2017
Другие материалы по этой песне:
  • Аккорды и текст

Страница создана 23.06.2012
http://primanota.ru/pet-shop-boys/in-the-night-chords.htm
Привет, Гость.
Предлагаем пройти революционный курс по гитаре.
Подарок от PrimaNota.Ru, забирай!