PrimaNota.ru - самый крупный в мире бесплатный архив песенных текстов, аккордов, табулатур и нот


Pestilence - Osculum Infame - таба, видео

Регистрация Запомнить меня
Войти через:  Facebook Google Twitter Vk Yandex Mail.ru

Pestilence - Osculum Infame - таба, видео

Печатать
Просмотров: 50
Artist: Pestilence 
Song: Osculum Infame 
Album: Malleus Maleficarum

Tuning:E standard

e|-------------------------------|
B|-------------------------------|
G|------0-----0-------0-----0----|
D|----8-----8-------8-----8------|
A|--7-----7-------7-----7--------|
E|0-------------0----------------|

e|---------------------------------|
B|---------------------------------|
G|------10-----10-------10-----10--|
D|----8------8--------8------8-----|
A|--7------7--------7------7-------|
E|6---------------6----------------|

e|---------------------------------|
B|--------0---------------0--------|
G|------0---0-----------0---0------|
D|----8-------8-------8-------8----|
A|--7-----------7---7-----------7--|
E|0---------------0---------------0|

e|----------------------|
B|---------6------------|
G|-------6---6----------|
D|----10-------10-------|
A|--8-------------8-----|
E|6-----------------6---|

e|--------------------|
B|--------3-----------|
G|------3---3---------|
D|----7-------7-------|
A|--5-----------5-----|
E|3---------------3---|

e|------------------|
B|--------2---------|
G|------2---2-------|
D|----6-------6-----|
A|--4-----------4---|
E|2-----------------|

e|------------------|
B|--------0---------|
G|------2---2-------|
D|----6-------6-----|
A|--4-----------4---|
E|0-----------------|

e|------------3-----------3--------|
B|------3---3---3-------3---3------|
G|----5---5-------5---5-------3----|
D|--5---------------5-----------5--|
A|3--------------------------------|
E|---------------------------------|

e|------------------|--11---11---11|
B|--------4---------|-----0----0---|
G|------4---4-------|--------------|
D|----8-------8-----|--------------|
A|--6-----------6---|--------------|
E|4-----------------|0-------------|

************************************

| /   slide up
| \   slide down
| h   hammer-on
| p   pull-off
| ~   vibrato
| +   harmonic
| x   Mute note
| b   Bend
| pb  Pre-bend
| br  Bend release
| pbr Pre-bend release
| brb Bend release bend

************************************
Добавлено: 02.12.2015
Другие материалы по этой песне:
  • Аккорды и текст

Страница создана 02.12.2015
http://primanota.ru/pestilence/osculum-infame-chords.htm
Привет, Гость.
Предлагаем пройти революционный курс по гитаре.
Подарок от PrimaNota.Ru, забирай!