PrimaNota.ru - самый крупный в мире бесплатный архив песенных текстов, аккордов, табулатур и нот


Pestilence - Defy Thy Master - таба, видео

Регистрация Запомнить меня
Войти через:  Facebook Google Twitter Vk Yandex Mail.ru

Pestilence - Defy Thy Master - таба, видео

Печатать
Просмотров: 32
Artist: Pestilence 
Song: Defy Thy Master
Album: Consuming Impulse

Tabbed by:chris

Tuning:D standard 

Gtr 1
e|---------------------------------------------|
B|---------------------------------------------|
G|---------------------------------------------|
D|---------------------------------------------|
A|----------4444------4-444-4-444-4-444-4-444--|
E|333333333------1111-2-222-2-222-2-222-2-222--|
  ········· ···· ···· · ··· · ··· · ··· · ···
                               
Gtr 1
e|---------------------------------------------|
B|---------------------------------------------|
G|---------------------------------------------|
D|---------------------------------------------|
A|----------4444------4-444-3-333-3-333-3-333--|
E|333333333------1111-2-222-1-111-1-111-1-111--|
  ········· ···· ···· · ··· · ··· · ··· · ···
                             

Gtr 2
e|-------------------------------|-------------------|
B|-------------------------------|-------------------|
G|-------------------------------|-------------------|
D|-8--11---8--7----8--11--8--7--6|-7--6--7--6--7--6--|
A|10------10--9---10-----10--9--8|-9--8--9--8--9--8--|
E|-------------------------------|-------------------|
                x2

Gtr 1,2
e|---------------------|-------------|
B|---------------------|-------------|
G|---------------------|-------------|
D|---------------------|-------------|
A|4--4-3--3-4--4-3--3--|4-444-3-333--|
E|2--2-1--1-2--2-1--1--|2-222-1-111--|
                        · ··· · ··· 
                             x4

Gtr 1,2
e|---------------|-----------------|
B|---------------|-----------------|
G|---------------|-----------------|
D|3---3----------|6---3333-6---3333|
A|1-0-1-0--------|4---1111-4---1111|
E|--------0-00000|--0--------0-----|
          · ·····   · ····   · ····
        x3

Gtr 1
e|--------------------|--------------------|
B|--------------------|--------------------|
G|--------------------|--------------------|
D|4-5--8-7--4-5--9-8--|-----8-7-------9-8--|
A|2-3--6-5--2-3--7-6--|4-5--6-5--4-5--7-6--|
E|--------------------|2-3-------2-3-------|
          x2                   x2
  Defy Thy Master!

Gtr 2
e|--------------------|--------------------|
B|--------------------|--------------------|
G|--------------------|--------------------|
D|4-5--9-8--4-5--10-9-|-----9-8-------10-9-|
A|2-3--7-6--2-3--8--7-|4-5--7-6--4-5--8--7-|
E|--------------------|2-3-------2-3-------|
          x2                   x2
 Defy Thy Master!

Gtr 1,2
e|--------------------------------------|
B|--------------------------------------|
G|---------12----------12---------------|
D|------10----------10------11-14--12---| x4
A|----9-----------9---------9--12--10---|
E|000---------000---------0-------------|
  ···         ···         ·

Gtr 1
e|--------------------------------|
B|--------------------------------|
G|--------------------------------|
D|4------4----3----4------4----5--| x8
A|2------2----1----2------2----3--|
E|--------------------------------|

Gtr 2
e|----------------------------------------|
B|----------------------------------------|
G|----------------------------------------|
D|----------------------------------------|
A|----------------------------------------|
E|22222222222222222222222222222222-1111111|
  ································ ·······

Gtr 2
e|----------------------------------------|
B|----------------------------------------|
G|----------------------------------------|
D|----------------------------------------|
A|----------------------------------------|
E|22222222222222222222222222222222-3333333|
  ································ ·······

Gtr 1
e|------------------------------------|
B|------------------------------------|
G|------------------------------------|
D|---4-3---3-4-33------4-3-------66---| x6
A|---2-1-2-1-2-11-3----2-1-2-3-4-44-6-|
E|00-----0--------1-00-----0-1-2----4-|
  ··           ··   ··           ··
   ^ under solo 


************************************
| ·   palm mute
| /   slide up
| \   slide down
| h   hammer-on
| p   pull-off
| ~   vibrato
| +   harmonic
| x   Mute note
| b   Bend
| pb  Pre-bend
| br  Bend release
| pbr Pre-bend release
| brb Bend release bend

************************************
Добавлено: 02.12.2015
Вам также может быть интересно:
Другие материалы по этой песне:
  • Аккорды и текст

Страница создана 02.12.2015
http://primanota.ru/pestilence/defy-thy-master-chords.htm
Привет, Гость.
Предлагаем пройти революционный курс по гитаре.
Подарок от PrimaNota.Ru, забирай!