PrimaNota.ru - самый крупный в мире бесплатный архив песенных текстов, аккордов, табулатур и нот


Песни из кино и мультфильмов - Постой паровоз - аккорды и текст, видео

Регистрация Запомнить меня
Войти через:  Facebook Google Twitter Vk Yandex Mail.ru

Песни из кино и мультфильмов - Постой паровоз - аккорды и текст, видео

Печатать
Просмотров: 420
Постой паровоз
Песни из кино и мультфильмов
...Постой паровоз, не стучите колеса...

  Am          Dm          E       Am
  Летит паровоз по долинам, по взгорьям
     C           E
  Летит он неведомо куда.
      Am         A7          Dm
  Я к маменьке pодной с последним пpиветом
     Am     E Am
  Спешу показаться на глаза.

(2)  не жди меня, мама, хоpошего сына.
  Твой сын не такой как был вчеpа.
  Меня засосала опасная тpясина
  И жизнь моя - вечная игpа.

  А если посадят меня за решетку,
  В тюрьме я решеточку порву.
  Пускай луна светит своим продажным светом,
  А я все равно убегу.

  А если заметит тюремная стража,
  Тогда я мальчишечка пропал.
  Тревога и выстрел, и вниз головою,
  Под стену тюремную упал.

  Я буду лежать на тюремной кровати,
  И буду лежать, умирать.
  И вы не придете любимая мамаша,
  Меня перед смертью целовать.

(3)  Постой, паpовоз, не стучите, колеса.
  Есть вpемя взглянуть судьбе в глаза.
  Пока еще не поздно нам сделать остановку,
  Кондуктоp, нажми на тоpмоза.

-

Соло:  1) -0-0-5-3-1-------0---0-------
  2) -----------3-1-0---3---------
  3) -----------------------2-----

  1) -3-3--------8-7-5-4--0-8-7-8-7-5-
  2) -----1-5-5-----------------------
  3) ---------------------------------

  1) -0-5-3-5-3-1--0-0-3-1-0---------
  2) ------------------------3-0-1---
  3) ------------------------------2-

-

   Играется двумя гитарами. Cоло:

  е-0-0-5-3-1-------0---0-------
  H-----------3-1-0---3---------
  G-----------------------2-----

  e-3-3--------8-7-5-4--0-8-7-8-7-5--0-5-3-5-3-1--0-0-3-1-0---------
  H-----1-5-5-----------------------------------------------3-0-1---
  G---------------------------------------------------------------2-

   А вторая аккордами стучит (2/4).
Добавлено: 14.10.2013
http://primanota.ru/pesni-iz-kino-i-multfilmov/postoi-parovoz-chords.htm
Привет, Гость.
Предлагаем пройти революционный курс по гитаре.
Подарок от PrimaNota.Ru, забирай!