PrimaNota.ru - самый крупный в мире бесплатный архив песенных текстов, аккордов, табулатур и нот


Песни из кино и мультфильмов - He's a Pirate (к/ф ''Пираты Карибского Моря'') - аккорды и текст, видео

Регистрация Запомнить меня
Войти через:  Facebook Google Twitter Vk Yandex Mail.ru

Песни из кино и мультфильмов - He's a Pirate (к/ф ''Пираты Карибского Моря'') - аккорды и текст, видео

Печатать
Просмотров: 188
He's a Pirate (к/ф ''Пираты Карибского Моря'')
Песни из кино и мультфильмов
Дорожка 1
   E S S S S E S S S S   E S S S S E S S S S   E S S S S E S S S S 
E||------------------------|------------------------|------------------------|
B||------------------------|------------------------|------------------------|
G||------------------------|------------------------|------------------------|
D||--0--0-0-0-0-0--0-0-0-0-|--0--0-0-0-0-0--0-0-0-0-|--0--0-0-0-0-0--0-0-0-0-|
A||------------------------|------------------------|------------------------|
E||------------------------|------------------------|------------------------|

 E S S S S E E S S    E S S S S E S S S S   E S S S S S E S S S 
-----------------------||------------0-1--1---1h-3-|--0--0--------------------|
---------------------1-||---3--3---3---3--3--------|--1--1---3p-1-1h-3------1-|
-------------------2---||--2--2-------3--3---------|--0--0--------2-------2---|
--0--0-0-0-0-0--0------||--0--0--------------------|--------------0-----0-----|
-----------------------||----------------1--1------|--3----3------------------|
-----------------------||--------------------------|--------------------------|

 E S S S S E S S S S   E S S S S E. S S S   E S S S S E S S S S 
-----------0-1--1---1h-3-|--0--0------------------|-----------0-3--3---3-5-|
--3--3---3---1--1--------|--1--1---3p-1-3-------1-|--3--3---3---3--3-------|
--3--3-------2--2--------|--0--0--------2-----2---|--2--2-------3--3-------|
-------------------------|--------------0---0-----|--0----0----------------|
--1----1-----------------|--3----3----------------|------------------------|
-------------1----1------|------------------------|-------------3----3-----|

 E S S S S E S S S S   E S S S S E E S S   E S S S S E. S S S   
--6--6---5p-3-5--------0-|--1--1---3-5---------1-|--0--0---1---0----------||
--3--3--------3--3---3---|--3--3-----3-3-----3---|--2--2-----3-2-------1--||
--3--3--------2--2-------|--3--3-----2-2---------|--2--2-------2-----2----||
--3----3------0----0-----|-----------0----0------|-------------2----------||
-------------------------|--1----1---------------|--0----0-----0---0------||
-------------------------|-----------------------|------------------------||

 E S S S S E E E   E E  E Q   S S   Q   E Q   S S 
--0--0--------------0--|--1--1h--3--5---------|----------6---------|
--2--2---3p-1-3--3-----|--3---------2----5p-2-|----------3----6p-3-|
--2--2--------2--2-----|--3---------2---------|--2-------3---------|
--------------0--------|--3---------2---------|----------3---------|
--0----0---------------|--1---------0---------|--------------------|
-----------------------|----------------------|--------------------|

 Q.   E. E.   E. S E E E T T S   S S E E E E T T S 
-----------------|-----------5--5--------|--6-5-------3--3--------|
-----------------|-----------6--6------6-|--6-6-------5--5------5-|
--3------2---3---|--2--------7--7----7---|--7-7-------5--5----5---|
---------2---3---|--2--------0-----0-----|--0---------0-----0-----|
---------0---1---|--0--------------------|------------------------|
-----------------|-----------------------|------------------------|

 S S E E E E T T S   S S E E E E E   E E S S 
--3-5-------5--5--------|--6-5-------3--1--0--|----------0-|
--5-6-------6--6------6-|--6-6-------5--3--2--|--3-----3---|
--5-7-------7--7----7---|--7-7-------5--2--2--|--2---------|
--0---------0-----0-----|--0---------0--0-----|--0---------|
------------------------|------------------0--|------------|
------------------------|---------------------|------------|

 E S S E E E  E   E E E E E S S   E S S E E E E  
--1----3h-5--3--1p--0--|--1--3--5--3-------3-|--5--L------0--1--0--|
--3----------1---------|--1--------3--L--6---|--6----8-6--2--------|
--2--L-------0---------|--2--------3--L------|--7--L------2--------|
-----------------------|---------------------|--0--L---------------|
--0--L-------3---------|---------------------|------------0--------|
-----------------------|--1--------3--L------|---------------------|

 E S S E E E S S   E S S E E E E   E E E E E S S 
-------0------------0-|--1----0-1--3--1--3--|--5--3-------------0-|
--3--L---1--3-----3---|--3--L------1--------|--------6--3-----3---|
--2--L---2--2--L------|--2--L------0--------|--5--------3---------|
--0---------0--L------|--0------------------|--3--------3---------|
----------------------|------------3--------|-----------1---------|
----------------------|---------------------|---------------------|

 E E E E E E   E S S E E Q     E E E E E E  
--1--3--5--6-----3--|--1----3-0----------|--5--------6--------|
--3--------3--3-----|--3------2--3--L----|--6--------6--------|
--2--------3--------|--2------2--2--L----|--7--------7--------|
--0--------3--------|--0---------0--L----|--7--------8--------|
--------------------|---------0----------|--5--------8--------|
--------------------|--------------------|-----------6--------|

 E E E S S E E   E E E E E E   E E E E. S S S 
--5--5--5--5-3-------|--3--------1--------|--0--1--0----------1-|
--6--6--6--6-5-------|--3--------3--------|--2--2--2--3-----3---|
--5--5--5--5-5-------|--3--------2--------|--0--0--0--2---2-----|
--7--7--7--7-5-------|--5--------0--------|--2--2--2--0---------|
--8----------3-------|--5-----------------|--0------------------|
---------------------|--3-----------------|---------------------|

 E E E E E E   E E E S S E E   E E E E E E  
--5--------6--------|--5--5--8--5-3-------|--3--------1--------|
--6--------6--------|--6--6--6--6-5-------|--3--------3--------|
--7--------7--------|--5--5--5--5-5-------|--3--------2--------|
--7--------8--------|--7--7--7--7-5-------|--5--------0--------|
--5--------8--------|--8----------3-------|--5-----------------|
-----------6--------|---------------------|--3-----------------|

 E E E E. S S S   E E E E E E   E E E S S E E  
--0--1--0----------1-|--5--------6--------|--5--5--8--5-3-------|
--2--2--2--3-----3---|--6--------3--------|--6--6--6--6-5-------|
--0--0--0--2---2-----|--7--------3--------|--5--5--5--5-5-------|
--2--2--2--0---------|--0--------3--------|--7--7-----7-5-------|
--0------------------|--------------------|--8----------3-------|
---------------------|--------------------|---------------------|

 E E E E E E   E E E Q.     
--3--------1--------|--0--1--0---------||
--3--------3--------|--2--2--2--3------||
--3--------2--------|--0--0--0--2------||
--5--------0--------|--2--2--2--0------||
--5-----------------|------------------||
--3-----------------|------------------||
Добавлено: 25.10.2015
http://primanota.ru/pesni-iz-kino-i-multfilmov/hes-a-pirate-k-f-piraty-karibskogo-morya-chords.htm
Привет, Гость.
Предлагаем пройти революционный курс по гитаре.
Подарок от PrimaNota.Ru, забирай!