PrimaNota.ru - самый крупный в мире бесплатный архив песенных текстов, аккордов, табулатур и нот


Песни из кино и мультфильмов - Hans Zimmer - He's a Pirate - Тема из к/ф "Пираты Карибского моря" - аккорды и текст, видео

Регистрация Запомнить меня
Войти через:  Facebook Google Twitter Vk Yandex Mail.ru

Песни из кино и мультфильмов - Hans Zimmer - He's a Pirate - Тема из к/ф "Пираты Карибского моря" - аккорды и текст, видео

Печатать
Просмотров: 370
Hans Zimmer - He's a Pirate - Тема из к/ф "Пираты Карибского моря"
Песни из кино и мультфильмов
Аккорды He's a Pirate (Пираты Карибского моря)
Первая чать 2раза :
Dm Bb Am Dm

Bb F C Dm

Dm Gm Am Dm

Bb Dm A (A7)

Куплет :
A , Dm C Bb A , Gm A

Second part :

Dm Dm, C Dm

Dm Dm, C D

Calm part:

Dm C F Bb, F Am Dm Dm

Dm C F Bb, Gm Am .. A

Припев:
Dm Bb F C , Gm Am Am Dm




Igor Presnyakov
Guitar

      
     H                                                 E  S S  
E||------------------------------------------------------------|
B||---------------------------------------------------------1-|
G||-------------------------------------------------------2---|
D||------------------------------------------------------------|
A||------------------------------------------------------------|
E||------------------------------------------------------------|


    Dm         A#            Am           Dm          
    E  S S S S E  S S S S    E  S S S S   E.   S S S  
|----------------0--1--1---1-3-|--0--0--------------------------|
|----3--3-----3----3--3--------|--1--1----3-1-1g3~-------1-|
|---2--2----------3--3--------|--2--2-------------2------2----|
|---0--0-x--------------x-----|---------x----------0----x------|
|-----------x-------1--1--x-----|--0--0--x---------------x------|
|-----------x--------------x-----|---------x----------------x------|


  A#         F             C            Dm          
  E  S S S S E  S S S S    E  S S S S   E.   S S S  
--------------0-1--1----1-3-|--0--0-----------------------------|
--3--3----3----1--1---------|--1--1------3-1-1g3~--------1-|
--3--3----------2--2--------|---0--0--------------2--------2---|
---------x--------------x-----|----------x----------0-----x-------|
--1--1--x--------------x-----|--3--3---x----------------x-------|
---------x-------1--1--x-----|----------x----------------x-------|


             A#            Gm         Dm            
  E  S S S S E  S S S S    E  S S S S S  E   S S S  
------------1--3--3----3-5-|--6--6----5--3--5--L---------0-|
--3--3---3----3--3---------|--3--3---------------3~----3---|
--2--2---------3--3---------|--3--3---------------------------|
--0--0-x--------------x------|--------x-------0----L---x------|
--------x-------1--1--x------|--------x-----------------x------|
--------x--------------x------|--3--3-x-----------------x------|


  A#         Dm            A                         A          Dm     C   
  E  S S S S E.   S S S    E  S S S S E.  S S S      E  S S S S E  S S E   
--1--1---3-5----------1-|--0--0---1---0----------||--0--0--------------0--|
--3--3-------3~-----3---|--2--2-----3-2-------1--||--2--2---3-1-3--3---1--|
--3--3-------2----------|--2--2-------2-----2---||--2--2-------2--2---0--|
-------x-----0----x-----|-------x---------x-----||-------x-----0--0-x----|
--1--1-x----------x-----|--0--0-x-----0---x------||--0--0-x----------x-3--|
-------x----------x-----|-------x---------x------||-------x----------x----|


  A#        A                    Gm                   A          
  E  S S E  E  E  S S    E.  E.  E.  S S S    E.  E.  S E  S E   
--1--1----3--5-----------|-----------6-------------|----------0-0---------|
--3--3----3--2------6-3-|-----------3--------6-3-|----------2-2-----3--|
--3--3--------2------2-2-|--2-------3--------3-3-|--3-------2-2-----2--|
--------x----------x-------|--2---x--------x--------|--5---x---------x-----|
--1--1-x--1--0---x--0-0-|--0---x--------x--------|------x---0-0--x-----|
--------x----------x-------|-------x---3----x--3-3-|--3---x---------x-----|


            Dm                    C              F      Dm         
  E.  S S S E  S S E     S E  E.  E  S S E     S E  E.  E  S S E   
--1-----------5--5---5--|--6-5------3--3---3--|--3--5------5--5---5--|
--2------6-8-6--6---6--|--6-6------5--5---5--|--5---------6--6---6--|
--2-----------7--7---7--|--7-7------5--5---5--|--5--5------7--7---7--|
-------x------0--0-x-0--|--0-0--x---------x----|-----3--x---0--0-x-0--|
--0---x-------------x----|--------x---3--3-x-3--|--3-----x---------x----|
-------x-------------x----|--------x---------x----|---------x---------x----|


           A            Dm          Dm       C         
  S E  E.  E  S S E     Q    S S    E.  S E  E  E  E   
--6-5------3--1---0---|-----------0-|--1---3-5--3--1--0--|
--6-6------2--2---2---|--3----3----|------------------------|
--7-7------2--2---2---|--2----------|------------------------|
--0-0--x---------x-----|--0----------|--0--------------------|
--------x---0--0-x-0--|--------------|-------------3---------|
--------x---------x-----|--------------|------------------------|


  F        C           F        A           Dm                 
                                                     ^         
  E  E  E  Q    S S    E.  S E  E  E  E     E.  S E  Q    S S  
--1--3--5--3----1-3-|--5---3-1--0--1--0--|------0-------------0-|
------------------------|-----------------------|--3-----1--3----3----|
------------------------|-----------------------|------------2----------|
--3--------------------|--3--------------------|--0--------0----------|
-------------3---------|--------------0--------|------------------------|
------------------------|-----------------------|------------------------|

[ Tab from:  ]

           C           F        A#          Dm       Gm        
  E.  S E  E  E  E     E  E  E  Q    S S    E  E  E  E  E  E   
--1---0-1--3--1--3--|--5--3-------------0-|--1--3--5--6-----3--|
--3---3-3--1--1--1--|---------6--3----3---|--3--3--3--3--3--3--|
--2---------0---------|--5--5--5--3---------|--2--2--2--3--3--3--|
--0---0-0-------------|--3--3--3------------|--0--0--0-------------|
-------------3--3--3--|-------------1--------|------------------------|
------------------------|-----------------------|------------3--3--3--|


  Its actually A, but this sounds better with Dm                   
  Dm                                                               
  E                                              S S E  E  S S E   
--1-------------------------------------------------3-0---------0------|
--3-------------------------------------------------------3---------2--|
--2----------------------------------------------2-------2----2--------|
--0-------------------------------------------------------0-------------|
-------------------------------------------------------------------------|
-------------------------------------------------------------------------|


  Dm        Gm           F          C           Gm        Dm         
  E.  S S S E.  S S S    E  E  E  S E  S S S    E.  S S S E.  S S S  
--5----------6-----------|--5--5--5--5-3-----------|--3----------1-----------|
--6----------3-----------|--6--6--6--5-5-----------|--3----------3-----------|
--7----------3-----------|--5--5--5--5-5-----------|--3----------2-----------|
--0---0-0-0-------------|----------------------------|--------------0---0-0-0-|
---------------------------|--8--8--8--3-3--3-3-3--|--------------------------|
--------------3---3-3-3-|----------------------------|--3---3-3-3-------------|


  A        Dm           Dm        Gm           F        C           
           ^                                                        
  E  E  E  E.  S S S    E.  S S S E.  S S S    E  E  E  S E  S S S  
--0--1--0---------------|--5-----------6-----------|--5--5--5--5-3-----------|
--2--2--2--3---------6-|--6-------6--3---------3-|--6--6--6--5-5--------5-|
--2--2--2--2------7----|--7-----7----3------3----|--5--5--5--5-5-----5----|
-------------0---0-------|--0---0-------------------|----------------------------|
--0--0--0---------------|----------------------------|--8--8--8--3-3--3-------|
--------------------------|--------------3---3-------|----------------------------|


  Gm        Dm           A        Dm           Dm        Gm         
                                  ^                                 
  E.  S S S E.  S S S    E  E  E  E.  S S S    E.  S S S E.  S S S  
--3-----------1---------|--0--1--0-------------|--5-----------6----------|
--3--------3-3-------3-|--2--2--2--3-------6-|--6--------6-3-------3--|
--3------3---2-----2---|--2--2--2--2-----7---|--7------7---3-----3----|
--------------0---0-----|-----------0----x------|--0---x-----------x------|
-------------------------|--0--0--0------x------|-------x-----------x------|
--3---3-----------------|-----------------x-----|--------x------3---x------|


  F         C             Gm        Dm           A         Dm         
                                                           ^          
  E  S S E  S E  S S S    E.  S S S E.  S S S    E  S S E  E.  S S S  
--5--5---5--5-3---------|--3---------1----------|--0--1-----0--------------|
--6--6---6--5-5------5-|--3-------3-3-------3-|--2--2-----2---3-------6-|
--5--5---5--5-5----5---|--3-----3---2-----2---|--2--2-----2---2-----7---|
--------x-----------x-----|------x------0---x-----|---------x------0---x------|
--8--8-x-8--3-3--x-----|------x-----------x-----|--0--0--x--0-------x-----|
--------x-----------x-----|--3---x----------x-----|----------x----------x-----|


  Dm        Gm           F         C             Gm        Dm         
  E.  S S S E.  S S S    E  S S E  S E  S S S    E.  S S S E.  S S S  
--5---------6----------|--5--5----8--5-3---------|--3---------1-----------|
--6-------6-3-------3-|--6--6----6--5-5------5-|--3-------3-3--------3-|
--7-----7---3-----3---|--5--5----5--5-5----5---|--3-----3---2------2---|
--0---x---------x------|---------x-7--------x-----|------x------0---x------|
------x----------x------|--8--8-x-----3-3--x-----|------x-----------x-----|
------x-----3---x------|---------x-----------x-----|--3---x----------x------|


  A         Dm       
            ^        
  E  S S E  Q.       
--0--1---0---------||
--2--2---2--3-----||
--2--2---2--2-----||
--------x----0------||
--0--0-x-0---------||
--------x------------||




Duration Legend
---------------
W - whole
H - half
Q - quarter
E - 8th
S - 16th
T - 32nd
X - 64th
. - note dotted
|-n-|  - n-tuplets


Tablature Legend
----------------
L - tied note
x - dead note
g - grace note
(n) - ghost note
> - accentuded note
NH - natural harmonic
AH - artificial harmonic
TH - tapped harmonic
SH - semi harmonic
PH - pitch harmonic
h - hammer on
p - pull off
b - bend
br - bendRelease
pb - preBend
pbr - preBendRelease
brb - bendReleaseBend
n/ - tremolo bar dip
n - tremolo bar dive
-/n - tremolo bar Release up
/n - tremolo bar inverted dip
/n - tremolo bar return
-n - tremolo bar Release down
S - shift slide
s - legato slide
/ -  slide into from below or out of upwards
 -  slide into from above or out of downwards
~ - vibrato
W - wide vibrato
tr - trill
TP - tremolo picking
T - tapping
S - slap
P - pop
< - fade in
^ - brush up
v - brush down


разбор мелодии 
простая версия



Добавлено: 01.08.2015
http://primanota.ru/pesni-iz-kino-i-multfilmov/hans-zimmer-hes-a-pirate-tema-iz-k-f-piraty-karibskogo-morya-chords.htm
Привет, Гость.
Предлагаем пройти революционный курс по гитаре.
Подарок от PrimaNota.Ru, забирай!