PrimaNota.ru - самый крупный в мире бесплатный архив песенных текстов, аккордов, табулатур и нот


Pesawat - Excuse Me - таба, видео

Регистрация Запомнить меня
Войти через:  Facebook Google Twitter Vk Yandex Mail.ru

Pesawat - Excuse Me - таба, видео

Печатать
Просмотров: 97
Pesawat   : Excuse Me
Tabbed by : Hariz Abdul Hadi (twitter.com/CubaTryTest)
Tunning   : Standard (EADGBe)

[INTRO]

Guitar 1
e|-------------------------------------|x2
B|-5-4-----5-54------------------------|
G|-----4-4------4-44-66-4-----6-64---4-|
D|------------------------6-6------6---|
A|-------------------------------------|
E|-------------------------------------|

Guitar 2
e|-------------------------------------|x2
B|-------------------------------------|
G|-999999999999999-6666666666666666----|
D|-999999999999999-6666666666666666----|
A|-777777777777777-4444444444444444----|
E|-------------------------------------|

[VERSE]

Guitar 1
e|-------------------|x4
B|-------------------|
G|----466----466-----|
D|-46-----46-----464-|
A|-------------------|
E|-------------------|

e|-----------------------|x4
B|-----------------------|
G|----44---66--4---4-4---|
D|-46----6-------6-----6-|
A|-----------------------|
E|-----------------------|

Guitar 2
e|----------------------------------|
B|----------------------------------|
G|-999999999999999-6666666666666666-|
D|-999999999999999-6666666666666666-|
A|-777777777777777-4444444444444444-|
E|----------------------------------|

[PRE-CHORUS]

Guitar 1
e|--------------|
B|--------------|
G|--------------|
D|-4-4/6-/7-/14-|
A|--------------|
E|--------------|

Guitar 2
e|--------------|
B|--------------|
G|--------------|
D|-4------7-----|
A|-4------7-----|
E|-2------5-----|

[CHORUS]

Guitar 1
e|-------------------------------------|x2
B|-5-4-----5-54------------------------|
G|-----4-4------4-44-66-4-----6-64---4-|
D|------------------------6-6------6---|
A|-------------------------------------|
E|-------------------------------------|

Guitar 2
e|-------------------------------------|x2
B|-------------------------------------|
G|-999999999999999---6666666666666666--|
D|-999999999999999---6666666666666666--|
A|-777777777777777---4444444444444444--|
E|-------------------------------------|

[VERSE 2]

Guitar 1
e|-------------------|x4
B|-------------------|
G|----466----466-----|
D|-46-----46-----464-|
A|-------------------|
E|-------------------|

Guitar 2
e|----------------------------------|
B|----------------------------------|
G|-999999999999999-6666666666666666-|
D|-999999999999999-6666666666666666-|
A|-777777777777777-4444444444444444-|
E|----------------------------------|

Repeat [PRE-CHORUS]

Repeat [CHORUS] x2

[INTERLUDE]

Guitar 1
e|---------------------|
B|---------------------|
G|-4/6---4h6p4---------|
D|-------------6-4-4/6-|
A|---------------------|
E|---------------------|

BASS

e|------------------------------------|x2
B|-5-4-----5-54-----------------------|
G|-----4-4------4-44-6-4-----6-64---4-|
D|-----------------------6-6------6---|
A|------------------------------------|
E|------------------------------------|

e|------------------------------------|
B|-5-4-5-7-5-4-5-7-5-4-5-7-5-4-5-7----|
G|------------------------------------|
D|------------------------------------|
A|------------------------------------|
E|------------------------------------|

e|------------------------------------|x2
B|-5-4-----5-54-----------------------|
G|-----4-4------4-44-6-4-----6-64---4-|
D|-----------------------6-6------6---|
A|------------------------------------|
E|------------------------------------|

Guitar 2
e|--------------------------------------------|x2
B|--------------------------------------------|
G|-9999999999999/13-13-13/6666666666666666/44-|
D|--------------------------------------------|
A|-7777777777777/11-11-11/4444444444444444/22-|
E|--------------------------------------------|

e|--------------------------------------------|
B|--------------------------------------------|
G|-14-14-14-14/13-13-13-13/11-11-11-11/9999---|
D|--------------------------------------------|
A|-12-12-12-12/11-11-11-11/-9--9--9--9/7777---|
E|--------------------------------------------|\
                                                x2
e|--------------------------------------------|/
B|--------------------------------------------|
G|-13-13-13-13/11-11-11-11/9999/8888----------|
D|--------------------------------------------|
A|-11-11-11-11/-9--9--9--9/7777/6666----------|
E|--------------------------------------------|

[OUTRO]

Guitar 1
e|---------------|
B|---------------|
G|---------------|
D|-4--4/6-/7-/14-|
A|---------------|
E|---------------|

Guitar 2
e|---------------|
B|---------------|
G|---------------|
D|-4--4/6--7-----|
A|-4--4/6--7-----|
E|-2--2/4--5-----|
Добавлено: 10.03.2012
Другие материалы по этой песне:
  • Аккорды и текст

Страница создана 10.03.2012
http://primanota.ru/pesawat/excuse-me-chords.htm
Привет, Гость.
Предлагаем пройти революционный курс по гитаре.
Подарок от PrimaNota.Ru, забирай!