PrimaNota.ru - самый крупный в мире бесплатный архив песенных текстов, аккордов, табулатур и нот


Pertti Kurikan Nimipäivät - Aina Mun Pitää - таба, видео

Регистрация Запомнить меня
Войти через:  Facebook Google Twitter Vk Yandex Mail.ru

Pertti Kurikan Nimipäivät - Aina Mun Pitää - таба, видео

Печатать
Просмотров: 128
Уроки эстрадного вокала в Санкт-Петербурге
-------------------------------------------------------------------------------
                           Aina mun pitää - Pertti Kurikan Nimipäivät
 -------------------------------------------------------------------------------
Finnish Eurovision song entry 2015

Tabbed by: Mitä?
E-mail: mitanoise [at] gmail (dot) com

Guitar tab
Tuning: Standard

Intro
e|---------------------------------------------------------------------------|
B|---------------------------------------------------------------------------|
G|---------------------------------------------------------------------------|
D|---------------------------------------------------------------------------|
A|7/8/9/10/11----------------------------------------------------------------|
E|5/6/7/8 /9-----------------------------------------------------------------|

Main Riff
e|---------------------------------------------------------------------------------|
B|---------------------------------------------------------------------------------|
G|---------------------------------------------------------------------------------|
D|---------------------------------------------------------------------------------|
A|12-12-12-12-10-10-10-10-7-7-7-7-7-7-7-/-12-12-12-12-10-10-10-10-7-7-7-7-7-7-7-/--|
E|10-10-10-10-8--8--8--8--5-5-5-5-5-5-5-/-10-10-10-10-8--8--8--8--5-5-5-5-5-5-5-/--|

e|---------------------------------------------------------------------------------|
B|---------------------------------------------------------------------------------|
G|---------------------------------------------------------------------------------|
D|---------------------------------------------------------------------------------|
A|12-12-12-12-10-10-10-10-7-7-7-7-7-7-7-/-12-12-12-12-10-10-10-10-7-7-7-7-7-7-7----|
E|10-10-10-10-8--8--8--8--5-5-5-5-5-5-5-/-10-10-10-10-8--8--8--8--5-5-5-5-5-5-5----|


"En saa mennä koneelle"...
e|---------------------------------------------------------------------------|
B|---------------------------------------------------------------------------|
G|---------------------------------------------------------------------------|
D|---------------------------------------------------------------------------|
A|4-4-4-4-7-7-7-7-4-4-4-4-7-7-7-7-4-4-4-4-7-7-7-7-9-9-9-9-9-9-9/12-----------|
E|2-2-2-2-5-5-5-5-2-2-2-2-5-5-5-5-2-2-2-2-5-5-5-5-7-7-7-7-7-7-7/10-----------|

"En saa mennä koneelle"... Guitar Lead
e|---------------------------------------------------------------------------|
B|---------------------------------------------------------------------------|
G|9------12-------9-------12------9-------12------5--------------------------|
D|---------------------------------------------------------------------------|
A|---------------------------------------------------------------------------|
E|---------------------------------------------------------------------------|


Main Riff
e|---------------------------------------------------------------------------------|
B|---------------------------------------------------------------------------------|
G|---------------------------------------------------------------------------------|
D|---------------------------------------------------------------------------------|
A|12-12-12-12-10-10-10-10-7-7-7-7-7-7-7-/-12-12-12-12-10-10-10-10-7-7-7-7-7-7-7-/--|
E|10-10-10-10-8--8--8--8--5-5-5-5-5-5-5-/-10-10-10-10-8--8--8--8--5-5-5-5-5-5-5-/--|

e|---------------------------------------------------------------------------------|
B|---------------------------------------------------------------------------------|
G|---------------------------------------------------------------------------------|
D|---------------------------------------------------------------------------------|
A|12-12-12-12-10-10-10-10-7-7-7-7-7-7-7-/-12-12-12-12-10-10-10-10-7-7-7-7-7-7-7----|
E|10-10-10-10-8--8--8--8--5-5-5-5-5-5-5-/-10-10-10-10-8--8--8--8--5-5-5-5-5-5-5----|


"En saa syödä karkkia"...
e|---------------------------------------------------------------------------|
B|---------------------------------------------------------------------------|
G|---------------------------------------------------------------------------|
D|---------------------------------------------------------------------------|
A|4-4-4-4-7-7-7-7-4-4-4-4-7-7-7-7-4-4-4-4-7-7-7-7-9-9-9-9-9-9-9/12-----------|
E|2-2-2-2-5-5-5-5-2-2-2-2-5-5-5-5-2-2-2-2-5-5-5-5-7-7-7-7-7-7-7/10-----------|

"En saa syödä karkkia"... Guitar Lead
e|---------------------------------------------------------------------------|
B|---------------------------------------------------------------------------|
G|9------12-------9-------12------9-------12------5--------------------------|
D|---------------------------------------------------------------------------|
A|---------------------------------------------------------------------------|
E|---------------------------------------------------------------------------|


Main Riff
e|---------------------------------------------------------------------------------|
B|---------------------------------------------------------------------------------|
G|---------------------------------------------------------------------------------|
D|---------------------------------------------------------------------------------|
A|12-12-12-12-10-10-10-10-7-7-7-7-7-7-7-/-12-12-12-12-10-10-10-10-7-7-7-7-7-7-7-/--|
E|10-10-10-10-8--8--8--8--5-5-5-5-5-5-5-/-10-10-10-10-8--8--8--8--5-5-5-5-5-5-5-/--|

e|---------------------------------------------------------------------------------|
B|---------------------------------------------------------------------------------|
G|---------------------------------------------------------------------------------|
D|---------------------------------------------------------------------------------|
A|12-12-12-12-10-10-10-10-7-7-7-7-7-7-7-/-12-12-12-12-10-10-10-10-7-7-7-7-7-7-7----|
E|10-10-10-10-8--8--8--8--5-5-5-5-5-5-5-/-10-10-10-10-8--8--8--8--5-5-5-5-5-5-5----|

Outro
e|---------------------------------------------------------------------------|
B|---------------------------------------------------------------------------|
G|---------------------------------------------------------------------------|
D|---------------------------------------------------------------------------|
A|8/9/10/11/12-12------------------------------------------------------------|
E|6/7/8 /9-/10-10------------------------------------------------------------|


************************************

| /   slide up
| \   slide down
| h   hammer-on
| p   pull-off
| ~   vibrato
| +   harmonic
| x   Mute note
| b   Bend
| pb  Pre-bend
| br  Bend release
| pbr Pre-bend release
| brb Bend release bend

************************************

Aina Mun Pitaa - Pertti Kurikan Nimipaivat
Добавлено: 18.10.2015
Вам также может быть интересно:
Другие материалы по этой песне:
  • Аккорды и текст

Страница создана 18.10.2015
http://primanota.ru/pertti-kurikan-nimipaivat/aina-mun-pitaa-chords.htm
Привет, Гость.
Предлагаем пройти революционный курс по гитаре.
Подарок от PrimaNota.Ru, забирай!