PrimaNota.ru - самый крупный в мире бесплатный архив песенных текстов, аккордов, табулатур и нот


Persuader - Judas Immortal - таба, бас-таба, видео

Регистрация Запомнить меня
Войти через:  Facebook Google Twitter Vk Yandex Mail.ru

Persuader - Judas Immortal - таба, бас-таба, видео

Печатать
Просмотров: 117
-------------------------------------------------------------------------------
			     Judas Immortal - Persuader
-------------------------------------------------------------------------------
Tabbed by: DavidovFarseer
Email: metalwarriorsprayer@gmail.com

Persuader's Website: www.persuader.nu

Tuning: A#-D#-G#-C#-F#-A#-D# (Standard 7 String Tuning tuned down 1/2 step)

Tempo: 220bpm
Time Sig: 4/4
  
Lead guitar first (scroll down for Rhythm parts)


Emil - Lead Guitar


      H        H           Q    Q    Q    Q       H        H         
D#||--------------------|----------------------|--------------------|
A#||--------------------|----------------------|--------------------|
F#||--7-----------------|------------6----7----|--6-----------------|
C#||-----------9--------|--L----9--------------|-----------7--------|
G#||--------------------|----------------------|--------------------|
D#||--------------------|----------------------|--------------------|
A#||--------------------|----------------------|--------------------|


  H.           Q       H        H           Q    Q    Q    Q     
--------------------|--------------------|----------------------|
--------------------|--------------------|----------------------|
---------------6----|--7-----------------|-----------------6----|
--L-----------------|-----------7--------|--L----7----9---------|
--------------------|--------------------|----------------------|
--------------------|--------------------|----------------------|
--------------------|--------------------|----------------------|


  H        H           W                   H        H         
--------------------|-------------------|--------------------|
--------------------|-------------------|--------------------|
--7--------9--------|--6----------------|--7-----------------|
--------------------|-------------------|-----------9--------|
--------------------|-------------------|--------------------|
--------------------|-------------------|--------------------|
--------------------|-------------------|--------------------|


  Q    Q    Q    Q       H        H           H.           Q     
----------------------|--------------------|--------------------|
----------------------|--------------------|--------------------|
------------6----7----|--6-----------------|---------------6----|
--L----9--------------|-----------7--------|--L-----------------|
----------------------|--------------------|--------------------|
----------------------|--------------------|--------------------|
----------------------|--------------------|--------------------|


  H        H           Q    Q    Q    Q       H        H         
--------------------|----------------------|--------------------|
--------------------|----------------------|--------------------|
--7-----------------|-----------------6----|--7--------9--------|
-----------7--------|--L----7----9---------|--------------------|
--------------------|----------------------|--------------------|
--------------------|----------------------|--------------------|
--------------------|----------------------|--------------------|


  H        Q    Q       W                   W                 
---------------------|-------------------|-------------------|
---------------------|-------------------|-------------------|
--6------------------|-------------------|-------------------|
-----------9----7----|--9----------------|--L----------------|
---------------------|-------------------|-------------------|
---------------------|-------------------|-------------------|
---------------------|-------------------|-------------------|


                      |----3----|    |----3----|                         
                      Q    Q    Q    Q    Q    Q       W                 
-------------------|--------------------------------|-------------------|
-------------------|--------------------------------|-------------------|
-------------------|--7----7----7-------------------|-------------------|
-------------------|-----------------7----7----7----|--9----------------|
-------------------|--------------------------------|-------------------|
-------------------|--------------------------------|-------------------|
-------------------|--------------------------------|-------------------|


                                                          TP                
                                                          W                 
-------|-------|-------|-------|-------|-------|-------|-------------------|
-------|-------|-------|-------|-------|-------|-------|-------------------|
-------|-------|-------|-------|-------|-------|-------|--7----------------|
-------|-------|-------|-------|-------|-------|-------|-------------------|
-------|-------|-------|-------|-------|-------|-------|-------------------|
-------|-------|-------|-------|-------|-------|-------|-------------------|
-------|-------|-------|-------|-------|-------|-------|-------------------|


  TP                  TP                  TP                  TP                
  W                   W                   W                   W                 
-------------------|-------------------|-------------------|-------------------|
-------------------|--8----------------|--7----------------|-------------------|
--6----------------|-------------------|-------------------|--7----------------|
-------------------|-------------------|-------------------|-------------------|
-------------------|-------------------|-------------------|-------------------|
-------------------|-------------------|-------------------|-------------------|
-------------------|-------------------|-------------------|-------------------|


  TP                  TP                  TP                  TP                
  W                   W                   W                   W                 
-------------------|-------------------|-------------------|-------------------|
-------------------|-------------------|-------------------|-------------------|
--6----------------|-------------------|-------------------|--7----------------|
-------------------|--7----------------|--8----------------|-------------------|
-------------------|-------------------|-------------------|-------------------|
-------------------|-------------------|-------------------|-------------------|
-------------------|-------------------|-------------------|-------------------|


  TP       TP          TP                  TP                
  H        H           W                   W                 
--------------------|-------------------|-------------------|
--------------------|--8----------------|--7----------------|
--6-----------------|-------------------|-------------------|
-----------7--------|-------------------|-------------------|
--------------------|-------------------|-------------------|
--------------------|-------------------|-------------------|
--------------------|-------------------|-------------------|


  TP                  TP                                                 
                                          |----3----|    |----3----|     
  W                   W                   Q    Q    Q    Q    Q    Q     
-------------------|-------------------|-----------------7----6---------|
-------------------|-------------------|------------7--------------8----|
--7----------------|--6----------------|-------6------------------------|
-------------------|-------------------|--7-----------------------------|
-------------------|-------------------|--------------------------------|
-------------------|-------------------|--------------------------------|
-------------------|-------------------|--------------------------------|


                                         PM PM               
  W                   Q               E  E  E  Q    Q    E   
-------------------|-------|-------|------------------------|
--7----------------|--L----|-------|------------------------|
-------------------|-------|-------|------------------------|
-------------------|-------|-------|--4--------5----2----4--|
-------------------|-------|-------|--2--2--2---------------|
-------------------|-------|-------|------------------------|
-------------------|-------|-------|------------------------|


  PM PM PM PM PM PM PM PM       PM PM           PM    PM PM      PM PM       
  E  E  E  E  E  E  E  E     E  E  E  Q    Q    E     E  E  Q    E  E  Q     
--------------------------|------------------------|------------------------|
--------------------------|------------------------|------------------------|
--------------------------|------------------------|------------------------|
--------------------------|--4--------5----2-------|------------------------|
--2--2--2--2--2--2--2--2--|--2--2--2------------5--|--------5----------5----|
--------------------------|---------------------3--|--3--3--3----3--3--3----|
--------------------------|------------------------|------------------------|


     PM PM                 PM PM PM PM PM PM PM PM                        
  E  E  E  Q    Q    E     E  E  E  E  E  E  E  E     Q.     Q.     Q     
------------------------|--------------------------|---------------------|
------------------------|--------------------------|---------------------|
------------------------|--------------------------|---------------------|
--4--------5----2----4--|--------------------------|--4------5------4----|
--2--2--2---------------|--2--2--2--2--2--2--2--2--|---------------------|
------------------------|--------------------------|---------------------|
------------------------|--------------------------|---------------------|


                          PM PM                 PM PM PM PM PM PM PM PM  
  H        H           E  E  E  Q    Q    E     E  E  E  E  E  E  E  E   
--------------------|------------------------|--------------------------|
--------------------|------------------------|--------------------------|
--------------------|------------------------|--------------------------|
--2--------2--------|--4--------5----2----4--|--------------------------|
--------------------|--2--2--2---------------|--2--2--2--2--2--2--2--2--|
--------------------|------------------------|--------------------------|
--------------------|------------------------|--------------------------|


     PM PM           PM    PM PM      PM PM            PM PM               
  E  E  E  Q    Q    E     E  E  Q    E  E  Q       E  E  E  Q    Q    E   
------------------------|------------------------|------------------------|
------------------------|------------------------|------------------------|
------------------------|------------------------|------------------------|
--4--------5----2-------|------------------------|--4--------5----2----4--|
--2--2--2------------5--|--------5----------5----|--2--2--2---------------|
---------------------3--|--3--3--3----3--3--3----|------------------------|
------------------------|------------------------|------------------------|


  PM PM PM PM PM PM PM PM                                             
  E  E  E  E  E  E  E  E     Q.     Q.     Q       H        H         
--------------------------|---------------------|--------------------|
--------------------------|---------------------|--------------------|
--------------------------|---------------------|--------------------|
--------------------------|---------------------|--------------------|
--2--2--2--2--2--2--2--2--|--5------7------7----|--9--------7--------|
--------------------------|--5------5------7----|--7--------5--------|
--------------------------|---------------------|--------------------|


                              PM PM PM PM PM PM PM                           
  E  E  E  Q    Q    E     E  E  E  E  E  E  E  E     E  E  E  Q    Q    E   
------------------------|--------------------------|------------------------|
------------------------|--------------------------|------------------------|
------------------------|--------------------------|------------------------|
------------------------|--------------------------|------------------------|
------------------------|--------------------------|------------------------|
------------------------|--------------------------|------------------------|
--1--3--3--4----1----3--|--L--3--3--3--3--3--3--3--|--1--3--3--4----3----1--|


  PM PM      PM PM                                     PM PM PM PM PM PM PM  
  E  E  Q    E  E  Q       E  E  E  Q    Q    E     E  E  E  E  E  E  E  E   
------------------------|------------------------|--------------------------|
------------------------|------------------------|--------------------------|
------------------------|------------------------|--------------------------|
------------------------|------------------------|--------------------------|
--------5----------5----|------------------------|--------------------------|
--3--3--3----3--3--3----|------------------------|--------------------------|
------------------------|--1--3--3--4----1----3--|--L--3--3--3--3--3--3--3--|


           PM PM PM PM                        TP                
  H        E  E  E  E     W                   W                 
-----------------------|-------------------|-------------------|
-----------------------|-------------------|-------------------|
-----------------------|-------------------|--7----------------|
-----------------------|-------------------|-------------------|
--2--------------------|--5----------------|-------------------|
--0--------0--0--0--0--|--3----------------|-------------------|
-----------------------|-------------------|-------------------|


  TP                  TP                  TP                  TP                
  W                   W                   W                   W                 
-------------------|-------------------|-------------------|-------------------|
-------------------|--8----------------|--7----------------|-------------------|
--6----------------|-------------------|-------------------|--7----------------|
-------------------|-------------------|-------------------|-------------------|
-------------------|-------------------|-------------------|-------------------|
-------------------|-------------------|-------------------|-------------------|
-------------------|-------------------|-------------------|-------------------|


  TP                  TP                  TP                  TP                
  W                   W                   W                   W                 
-------------------|-------------------|-------------------|-------------------|
-------------------|-------------------|-------------------|-------------------|
--6----------------|-------------------|-------------------|--7----------------|
-------------------|--7----------------|--8----------------|-------------------|
-------------------|-------------------|-------------------|-------------------|
-------------------|-------------------|-------------------|-------------------|
-------------------|-------------------|-------------------|-------------------|


  TP                  TP                  TP                  TP                
  W                   W                   W                   W                 
-------------------|-------------------|-------------------|-------------------|
-------------------|--8----------------|--7----------------|-------------------|
--6----------------|-------------------|-------------------|--7----------------|
-------------------|-------------------|-------------------|-------------------|
-------------------|-------------------|-------------------|-------------------|
-------------------|-------------------|-------------------|-------------------|
-------------------|-------------------|-------------------|-------------------|


  TP                                                                     
                      |----3----|    |----3----|                         
  W                   Q    Q    Q    Q    Q    Q       W                 
-------------------|-----------------7----6---------|-------------------|
-------------------|------------7--------------8----|--7----------------|
--6----------------|-------6------------------------|-------------------|
-------------------|--7-----------------------------|-------------------|
-------------------|--------------------------------|-------------------|
-------------------|--------------------------------|-------------------|
-------------------|--------------------------------|-------------------|


  E  E  E  E  E  E  E  E     E  E  E  E  E  E  E  E      W                 
--------------7--6--------|--------------7--6--7--9--|--10----------------|
--------7--8--------8--7--|--------7--8--------------|--------------------|
-----7--------------------|-----7--------------------|--------------------|
--9-----------------------|--9-----------------------|--------------------|
--------------------------|--------------------------|--------------------|
--------------------------|--------------------------|--------------------|
--------------------------|--------------------------|--------------------|


  PM PM PM PM PM PM PM PM       PM PM           PM    PM PM      PM PM       
  E  E  E  E  E  E  E  E     E  E  E  Q    Q    E     E  E  Q    E  E  Q     
--------------------------|------------------------|------------------------|
--------------------------|------------------------|------------------------|
--------------------------|------------------------|------------------------|
--------------------------|--4--------5----2-------|------------------------|
--2--2--2--2--2--2--2--2--|--2--2--2------------5--|--------5----------5----|
--------------------------|---------------------3--|--3--3--3----3--3--3----|
--------------------------|------------------------|------------------------|


     PM PM                 PM PM PM PM PM PM PM PM                        
  E  E  E  Q    Q    E     E  E  E  E  E  E  E  E     Q.     Q.     Q     
------------------------|--------------------------|---------------------|
------------------------|--------------------------|---------------------|
------------------------|--------------------------|---------------------|
--4--------5----2----4--|--------------------------|--4------5------4----|
--2--2--2---------------|--2--2--2--2--2--2--2--2--|---------------------|
------------------------|--------------------------|---------------------|
------------------------|--------------------------|---------------------|


                          PM PM                 PM PM PM PM PM PM PM PM  
  H        H           E  E  E  Q    Q    E     E  E  E  E  E  E  E  E   
--------------------|------------------------|--------------------------|
--------------------|------------------------|--------------------------|
--------------------|------------------------|--------------------------|
--2--------2--------|--4--------5----2----4--|--------------------------|
--------------------|--2--2--2---------------|--2--2--2--2--2--2--2--2--|
--------------------|------------------------|--------------------------|
--------------------|------------------------|--------------------------|


     PM PM           PM    PM PM      PM PM            PM PM               
  E  E  E  Q    Q    E     E  E  Q    E  E  Q       E  E  E  Q    Q    E   
------------------------|------------------------|------------------------|
------------------------|------------------------|------------------------|
------------------------|------------------------|------------------------|
--4--------5----2-------|------------------------|--4--------5----2----4--|
--2--2--2------------5--|--------5----------5----|--2--2--2---------------|
---------------------3--|--3--3--3----3--3--3----|------------------------|
------------------------|------------------------|------------------------|


  PM PM PM PM PM PM PM PM                                             
  E  E  E  E  E  E  E  E     Q.     Q.     Q       H        H         
--------------------------|---------------------|--------------------|
--------------------------|---------------------|--------------------|
--------------------------|---------------------|--------------------|
--------------------------|---------------------|--------------------|
--2--2--2--2--2--2--2--2--|--5------7------7----|--9--------7--------|
--------------------------|--5------5------7----|--7--------5--------|
--------------------------|---------------------|--------------------|


                              PM PM PM PM PM PM PM                          
  E  E  E  Q    Q    E     E  E  E  E  E  E  E  E     E  E  E  Q    Q.      
------------------------|--------------------------|-----------------------|
------------------------|--------------------------|-----------------------|
------------------------|--------------------------|-----------------------|
------------------------|--------------------------|-----------------------|
------------------------|--------------------------|-----------------------|
------------------------|--------------------------|-----------------------|
--1--3--3--4----1----3--|--L--3--3--3--3--3--3--3--|--1--3--3--4----1------|


                               PM PM PM PM    PM PM PM PM PM PM       
  W                   H        E  E  E  E     E  E  E  E  E  E  Q     
-------------------|-----------------------|-------------------------|
-------------------|-----------------------|-------------------------|
-------------------|-----------------------|-------------------------|
-------------------|-----------------------|-------------------------|
-------------------|--5--------------------|--------------------5----|
--2----------------|--3--------3--3--3--3--|--3--3--3--3--3--3--3----|
--0----------------|-----------------------|-------------------------|


                                                                 PM PM PM PM  
  E  E  E  E  E  E  E  E     E  E  E  E  Q.      E     Q    Q    E  E  E  E   
--------------------------|-------------------------|------------------------|
--------------------------|-------------------------|------------------------|
--------------------------|-------------------------|------------------------|
--------------------------|-------------------------|------------------------|
--7--7--7--7--------7--7--|--7--7-------------------|--2----2----------------|
--5--5--5--5--------5--5--|--5--5--------5\---------|--2----2----------------|
--------------------------|-------------------------|--0----0----0--0--0--0--|


                       PM PM      PM PM         PM PM      PM PM       
  Q    H.              E  E  Q    E  E  Q       E  E  Q    E  E  Q     
--------------------|------------------------|------------------------|
--------------------|------------------------|------------------------|
--------------------|------------------------|------------------------|
--------------------|--------4----------4----|--------4----------4----|
--5----5------------|--------4----------4----|--------4----------4----|
--5----5------------|--2--2--2----2--2--2----|--2--2--2----2--2--2----|
--3----3------------|------------------------|------------------------|


            PM PM PM PM                         PM PM      PM PM       
  Q    Q    E  E  E  E     Q    H.              E  E  Q    E  E  Q     
------------------------|--------------------|------------------------|
------------------------|--------------------|------------------------|
------------------------|--------------------|--------4----------4----|
--2----2----------------|--5----5------------|--------4----------4----|
--2----2----------------|--5----5------------|--2--2--2----2--2--2----|
--0----0----0--0--0--0--|--3----3------------|------------------------|
------------------------|--------------------|------------------------|


  PM PM      PM PM         PM              PM                           
  E  E  Q    E  E  Q       Q    E  E  Q    Q       E  E  Q    H         
------------------------|-----------------------|----------------------|
------------------------|-----------------------|----------------------|
--------4----------4----|-----------------------|----------------------|
--------4----------4----|-------5--4--5---------|--5--4--5-------------|
--2--2--2----2--2--2----|-----------------------|-------------5--------|
------------------------|--0---------------0----|----------------------|
------------------------|-----------------------|----------------------|


  PM PM      PM PM         PM PM      PM PM                   PM PM PM PM  
  E  E  Q    E  E  Q       E  E  Q    E  E  Q       Q    Q    E  E  E  E   
------------------------|------------------------|------------------------|
------------------------|------------------------|------------------------|
------------------------|------------------------|------------------------|
--------5----------5----|--------5----------5----|------------------------|
--------5----------5----|--------5----------5----|--5----5----------------|
--3--3--3----3--3--3----|--3--3--3----3--3--3----|--5----5----------------|
------------------------|------------------------|--3----3----3--3--3--3--|


            PM PM PM PM              PM PM PM PM                       
  Q    Q    E  E  E  E     Q    Q    E  E  E  E     H        H         
------------------------|------------------------|--------------------|
------------------------|------------------------|--------------------|
------------------------|------------------------|--------------------|
------------------------|------------------------|--5-----------------|
--5----5----------------|--5----5----------------|--5-----------------|
--5----5----------------|--5----5----------------|--3--------2--------|
--3----3----3--3--3--3--|--3----3----3--3--3--3--|-----------0--------|


            PM PM PM PM              PM PM PM PM              PM PM PM PM  
  Q    Q    E  E  E  E     Q    Q    E  E  E  E     Q    Q    E  E  E  E   
------------------------|------------------------|------------------------|
------------------------|------------------------|------------------------|
------------------------|------------------------|------------------------|
--2----2----------------|--2----2----------------|--5----5----------------|
--2----2----------------|--2----2----------------|--5----5----------------|
--0----0----0--0--0--0--|--0----0----0--0--0--0--|--3----3----3--3--3--3--|
------------------------|------------------------|------------------------|


            PM PM PM PM              PM PM PM PM              PM PM PM PM  
  Q    Q    E  E  E  E     Q    Q    E  E  E  E     Q    Q    E  E  E  E   
------------------------|------------------------|------------------------|
------------------------|------------------------|------------------------|
------------------------|--4----4----------------|--4----4----------------|
--5----5----------------|--4----4----------------|--4----4----------------|
--5----5----------------|--2----2----2--2--2--2--|--2----2----2--2--2--2--|
--3----3----3--3--3--3--|------------------------|------------------------|
------------------------|------------------------|------------------------|


  W                   W                   E   E   E  E   E   E  E   E   
-------------------|-------------------|-------------------------------|
-------------------|-------------------|-------------------------------|
--5----------------|--7----------------|--8p--5p--0--8p--5p--0--8p--5--|
--5----------------|--7----------------|-------------------------------|
--3----------------|--5----------------|-------------------------------|
-------------------|-------------------|-------------------------------|
-------------------|-------------------|-------------------------------|


  E   E   E  E   E   E  E   E     E   E   E  E   E   E  E   E   
-------------------------------|-------------------------------|
-------------------------------|-------------------------------|
--7p--5p--0--7p--5p--0--7p--5--|--8p--5p--0--8p--5p--0--8p--5--|
-------------------------------|-------------------------------|
-------------------------------|-------------------------------|
-------------------------------|-------------------------------|
-------------------------------|-------------------------------|


   E   E   E   E   E   E   E   E     E   E   E  E   E   E  E   E   
----------------------------------|-------------------------------|
----------------------------------|-------------------------------|
--10p--8p--0--10p--8p--0--10p--8--|--8p--5p--0--8p--5p--0--8p--5--|
----------------------------------|-------------------------------|
----------------------------------|-------------------------------|
----------------------------------|-------------------------------|
----------------------------------|-------------------------------|


  E   E   E  E   E   E  E   E     E   E   E  E   E   E  E   E   
-------------------------------|-------------------------------|
-------------------------------|-------------------------------|
--7p--5p--0--7p--5p--0--7p--5--|--8p--5p--0--8p--5p--0--8p--5--|
-------------------------------|-------------------------------|
-------------------------------|-------------------------------|
-------------------------------|-------------------------------|
-------------------------------|-------------------------------|


  E   E   E  E   E   E  E   E     E   E   E  E   E   E  E   E   
-------------------------------|-------------------------------|
-------------------------------|-------------------------------|
--7p--5p--0--7p--5p--0--7p--5--|--8p--5p--0--8p--5p--0--8p--5--|
-------------------------------|-------------------------------|
-------------------------------|-------------------------------|
-------------------------------|-------------------------------|
-------------------------------|-------------------------------|


  E   E   E  E   E   E  E   E     E   E   E  E   E   E  E   E   
-------------------------------|-------------------------------|
-------------------------------|-------------------------------|
--7p--5p--0--7p--5p--0--7p--5--|--8p--5p--0--8p--5p--0--8p--5--|
-------------------------------|-------------------------------|
-------------------------------|-------------------------------|
-------------------------------|-------------------------------|
-------------------------------|-------------------------------|


   E   E   E   E   E   E   E   E     E   E   E  E   E   E  E   E   
----------------------------------|-------------------------------|
----------------------------------|-------------------------------|
--10p--8p--0--10p--8p--0--10p--8--|--8p--5p--0--8p--5p--0--8p--5--|
----------------------------------|-------------------------------|
----------------------------------|-------------------------------|
----------------------------------|-------------------------------|
----------------------------------|-------------------------------|


  E   E   E  E   E   E  E   E      E   E   E   E   E   E   E   E   
-------------------------------|----------------------------------|
-------------------------------|----------------------------------|
--7p--5p--0--7p--5p--0--7p--5--|--12p--9p--0--11p--9p--0--12p--9--|
-------------------------------|----------------------------------|
-------------------------------|----------------------------------|
-------------------------------|----------------------------------|
-------------------------------|----------------------------------|


   E    E   E   E    E   E   E   E      W                                   
------------------------------------|--------------------|-----|-----|-----|
------------------------------------|--------------------|-----|-----|-----|
--14p--11p--0--12p--11p--0--14p--7--|--16----------------|-----|-----|-----|
------------------------------------|--------------------|-----|-----|-----|
------------------------------------|--------------------|-----|-----|-----|
------------------------------------|--------------------|-----|-----|-----|
------------------------------------|--------------------|-----|-----|-----|


-----|-----|-----|-----|-----|-----|-----|-----|-----|-----|-----|-----|-----|
-----|-----|-----|-----|-----|-----|-----|-----|-----|-----|-----|-----|-----|
-----|-----|-----|-----|-----|-----|-----|-----|-----|-----|-----|-----|-----|
-----|-----|-----|-----|-----|-----|-----|-----|-----|-----|-----|-----|-----|
-----|-----|-----|-----|-----|-----|-----|-----|-----|-----|-----|-----|-----|
-----|-----|-----|-----|-----|-----|-----|-----|-----|-----|-----|-----|-----|
-----|-----|-----|-----|-----|-----|-----|-----|-----|-----|-----|-----|-----|


                    E  E  E  E  E  E  E  E     E  E  E  E  E  E  E  E   
-----|-----|-----|--------------------------|--------------------------|
-----|-----|-----|--------------------------|--------------------------|
-----|-----|-----|--------------------------|--------------------------|
-----|-----|-----|--------------------------|--------------------------|
-----|-----|-----|--------------------------|--------------------------|
-----|-----|-----|-----------2--L--------2--|-----------2--L--------2--|
-----|-----|-----|-----------0--L--------0--|-----------0--L--------0--|


  W                   W                   Q    E  E  E  E  E  E   
-------------------|-------------------|-------------------------|
-------------------|-------------------|-------------------------|
-------------------|-------------------|-------------------------|
-------------------|-------------------|-------------------------|
-------------------|-------------------|-------------------------|
--3----------------|--6----------------|----------x--x-----x--x--|
--1----------------|--4----------------|--0----0--x--x--0--x--x--|


  Q    E  E  E   E   E   E     Q    E  E  E  E  E  E   
----------------------------|-------------------------|
----------------------------|-------------------------|
----------------------------|-------------------------|
----------------------------|-------------------------|
----------------------------|-------------------------|
----------x--x--------------|----------x--x-----x--x--|
--0----0--x--x--10--12--13--|--0----0--x--x--0--x--x--|


  Q    E  E  E   E   E   E     Q    E  E  E  E  E  E   
----------------------------|-------------------------|
----------------------------|-------------------------|
----------------------------|-------------------------|
----------------------------|-------------------------|
----------------------------|-------------------------|
----------x--x--------------|----------x--x-----x--x--|
--0----0--x--x--10--12--13--|--0----0--x--x--0--x--x--|


  Q    E  E  E   E   E   E     W                   W                 
----------------------------|-------------------|-------------------|
----------------------------|-------------------|-------------------|
----------------------------|-------------------|-------------------|
----------------------------|--4----------------|-------------------|
----------------------------|--4----------------|--5----------------|
----------x--x--------------|--2----------------|--5----------------|
--0----0--x--x--10--12--13--|-------------------|--3----------------|


  W                   W                   W                   W                 
-------------------|-------------------|-------------------|-------------------|
-------------------|-------------------|-------------------|-------------------|
-------------------|-------------------|-------------------|-------------------|
--7----------------|--L----------------|--7----------------|--L----------------|
--7----------------|--L----------------|--7----------------|--L----------------|
--5----------------|--L----------------|--5----------------|--L----------------|
-------------------|-------------------|-------------------|-------------------|


  Q    E  E  E  E  E  E     Q    E  E  E  E  E  E     Q    E  E  E  E  E  E   
-------------------------|-------------------------|-------------------------|
-------------------------|-------------------------|-------------------------|
-------------------------|-------------------------|-------------------------|
-------------------------|-------------------------|--2----2--------2--------|
-------------------------|-------------------------|--2----2--x--x--2--x--x--|
--2----2--x--x--2--x--x--|--2----2--x--x--2--x--x--|--0----0--x--x--0--x--x--|
--0----0--x--x--0--x--x--|--0----0--x--x--0--x--x--|-------------------------|


  Q    E  E  E  E  E  E     W                   W                E   
-------------------------|-------------------|----------------------|
-------------------------|-------------------|----------------------|
-------------------------|-------------------|----------------------|
--5----5--------5--------|--7----------------|--L----------------L--|
--5----5--x--x--5--x--x--|--7----------------|--L----------------L--|
--3----3--x--x--3--x--x--|--5----------------|--L----------------L--|
-------------------------|-------------------|----------------------|


                                          PM PM PM PM PM PM PM PM  
  W                   W                   E  E  E  E  E  E  E  E   
-------------------|-------------------|--------------------------|
-------------------|-------------------|--------------------------|
-------------------|-------------------|--------------------------|
--7----------------|--L----------------|--------------------------|
--7----------------|--L----------------|--------------------------|
--5----------------|--L----------------|--0--0--0--0--0--0--0--0--|
-------------------|-------------------|--------------------------|


  PM PM PM PM PM PM PM PM                                             
  E  E  E  E  E  E  E  E     Q.     Q.     Q       H        H         
--------------------------|---------------------|--------------------|
--------------------------|---------------------|--------------------|
--------------------------|---------------------|--------------------|
--------------------------|---------------------|--------------------|
--------------------------|--5------7------7----|--9--------7--------|
--0--0--0--0--0--0--0--0--|--3------5------7----|--7--------5--------|
--------------------------|---------------------|--------------------|


                                                                   PM PM PM PM  
                                      W                   H        E  E  E  E   
-----------|-----------|-----------|-------------------|-----------------------|
-----------|-----------|-----------|-------------------|-----------------------|
-----------|-----------|-----------|-------------------|-----------------------|
-----------|-----------|-----------|-------------------|-----------------------|
-----------|-----------|-----------|-------------------|--5--------------------|
-----------|-----------|-----------|--2----------------|--3--------3--3--3--3--|
-----------|-----------|-----------|--0----------------|-----------------------|


  PM PM PM PM PM PM                                                            
  E  E  E  E  E  E  Q       E  E  E  E  E  E  E  E     E  E  E  E  Q.      E   
-------------------------|--------------------------|-------------------------|
-------------------------|--------------------------|-------------------------|
-------------------------|--------------------------|-------------------------|
-------------------------|--------------------------|-------------------------|
--------------------5----|--7--7--7--7--------7--7--|--7--7-------------------|
--3--3--3--3--3--3--3----|--5--5--5--5--------5--5--|--5--5--------5\---------|
-------------------------|--------------------------|-------------------------|


            PM PM PM PM                         PM PM      PM PM       
  Q    Q    E  E  E  E     Q    H.              E  E  Q    E  E  Q     
------------------------|--------------------|------------------------|
------------------------|--------------------|------------------------|
------------------------|--------------------|------------------------|
------------------------|--------------------|--------4----------4----|
--2----2----------------|--5----5------------|--------4----------4----|
--2----2----------------|--5----5------------|--2--2--2----2--2--2----|
--0----0----0--0--0--0--|--3----3------------|------------------------|


  PM PM      PM PM                   PM PM PM PM                       
  E  E  Q    E  E  Q       Q    Q    E  E  E  E     Q    H.            
------------------------|------------------------|--------------------|
------------------------|------------------------|--------------------|
------------------------|------------------------|--------------------|
--------4----------4----|--2----2----------------|--5----5------------|
--------4----------4----|--2----2----------------|--5----5------------|
--2--2--2----2--2--2----|--0----0----0--0--0--0--|--3----3------------|
------------------------|------------------------|--------------------|


  PM PM      PM PM         PM PM      PM PM         PM              PM    
  E  E  Q    E  E  Q       E  E  Q    E  E  Q       Q    E  E  Q    Q     
------------------------|------------------------|-----------------------|
------------------------|------------------------|-----------------------|
--------4----------4----|--------4----------4----|-----------------------|
--------4----------4----|--------4----------4----|-------5--4--5---------|
--2--2--2----2--2--2----|--2--2--2----2--2--2----|-----------------------|
------------------------|------------------------|--0---------------0----|
------------------------|------------------------|-----------------------|


                         PM PM      PM PM         PM PM      PM PM       
  E  E  Q    H           E  E  Q    E  E  Q       E  E  Q    E  E  Q     
----------------------|------------------------|------------------------|
----------------------|------------------------|------------------------|
----------------------|------------------------|------------------------|
--5--4--5-------------|--------5----------5----|--------5----------5----|
-------------5--------|--------5----------5----|--------5----------5----|
----------------------|--3--3--3----3--3--3----|--3--3--3----3--3--3----|
----------------------|------------------------|------------------------|


            PM PM PM PM              PM PM PM PM              PM PM PM PM  
  Q    Q    E  E  E  E     Q    Q    E  E  E  E     Q    Q    E  E  E  E   
------------------------|------------------------|------------------------|
------------------------|------------------------|------------------------|
------------------------|------------------------|------------------------|
------------------------|------------------------|------------------------|
--5----5----------------|--5----5----------------|--5----5----------------|
--5----5----------------|--5----5----------------|--5----5----------------|
--3----3----3--3--3--3--|--3----3----3--3--3--3--|--3----3----3--3--3--3--|


                                 PM PM PM PM              PM PM PM PM  
  H        H           Q    Q    E  E  E  E     Q    Q    E  E  E  E   
--------------------|------------------------|------------------------|
--------------------|------------------------|------------------------|
--------------------|------------------------|------------------------|
--5-----------------|--2----2----------------|--2----2----------------|
--5-----------------|--2----2----------------|--2----2----------------|
--3--------2--------|--0----0----0--0--0--0--|--0----0----0--0--0--0--|
-----------0--------|------------------------|------------------------|


            PM PM PM PM              PM PM PM PM              PM PM PM PM  
  Q    Q    E  E  E  E     Q    Q    E  E  E  E     Q    Q    E  E  E  E   
------------------------|------------------------|------------------------|
------------------------|------------------------|------------------------|
------------------------|------------------------|--4----4----------------|
--5----5----------------|--5----5----------------|--4----4----------------|
--5----5----------------|--5----5----------------|--2----2----2--2--2--2--|
--3----3----3--3--3--3--|--3----3----3--3--3--3--|------------------------|
------------------------|------------------------|------------------------|


            PM PM PM PM                                          
  Q    Q    E  E  E  E     W                   W                 
------------------------|-------------------|-------------------|
------------------------|-------------------|-------------------|
--4----4----------------|--5----------------|--7----------------|
--4----4----------------|--5----------------|--7----------------|
--2----2----2--2--2--2--|--3----------------|--5----------------|
------------------------|-------------------|-------------------|
------------------------|-------------------|-------------------|


  E   E   E  E   E   E  E   E     E   E   E  E   E   E  E   E   
-------------------------------|-------------------------------|
-------------------------------|-------------------------------|
--8p--5p--0--8p--5p--0--8p--5--|--7p--5p--0--7p--5p--0--7p--5--|
-------------------------------|-------------------------------|
-------------------------------|-------------------------------|
-------------------------------|-------------------------------|
-------------------------------|-------------------------------|


  E   E   E  E   E   E  E   E      E   E   E   E   E   E   E   E   
-------------------------------|----------------------------------|
-------------------------------|----------------------------------|
--8p--5p--0--8p--5p--0--8p--5--|--10p--7p--0--10p--7p--0--10p--7--|
-------------------------------|----------------------------------|
-------------------------------|----------------------------------|
-------------------------------|----------------------------------|
-------------------------------|----------------------------------|


  E   E   E  E   E   E  E   E     E   E   E  E   E   E  E   E   
-------------------------------|-------------------------------|
-------------------------------|-------------------------------|
--8p--5p--0--8p--5p--0--8p--5--|--7p--5p--0--7p--5p--0--7p--5--|
-------------------------------|-------------------------------|
-------------------------------|-------------------------------|
-------------------------------|-------------------------------|
-------------------------------|-------------------------------|


  E   E   E  E   E   E  E   E     E   E   E  E   E   E  E   E   
-------------------------------|-------------------------------|
-------------------------------|-------------------------------|
--8p--5p--0--8p--5p--0--8p--5--|--7p--5p--0--7p--5p--0--7p--5--|
-------------------------------|-------------------------------|
-------------------------------|-------------------------------|
-------------------------------|-------------------------------|
-------------------------------|-------------------------------|


  E   E   E  E   E   E  E   E     E   E   E  E   E   E  E   E   
-------------------------------|-------------------------------|
-------------------------------|-------------------------------|
--8p--5p--0--8p--5p--0--8p--5--|--7p--5p--0--7p--5p--0--7p--5--|
-------------------------------|-------------------------------|
-------------------------------|-------------------------------|
-------------------------------|-------------------------------|
-------------------------------|-------------------------------|


  E   E   E  E   E   E  E   E      E   E   E   E   E   E   E   E   
-------------------------------|----------------------------------|
-------------------------------|----------------------------------|
--8p--5p--0--8p--5p--0--8p--5--|--10p--7p--0--10p--7p--0--10p--7--|
-------------------------------|----------------------------------|
-------------------------------|----------------------------------|
-------------------------------|----------------------------------|
-------------------------------|----------------------------------|


  E   E   E  E   E   E  E   E     E   E   E  E   E   E  E   E   
-------------------------------|-------------------------------|
-------------------------------|-------------------------------|
--8p--5p--0--8p--5p--0--8p--5--|--7p--5p--0--7p--5p--0--7p--5--|
-------------------------------|-------------------------------|
-------------------------------|-------------------------------|
-------------------------------|-------------------------------|
-------------------------------|-------------------------------|


   E   E   E   E   E   E   E   E      E    E   E   E    E   E   E   E   
----------------------------------|------------------------------------|
----------------------------------|------------------------------------|
--12p--9p--0--11p--9p--0--12p--9--|--14p--11p--0--12p--11p--0--14p--7--|
----------------------------------|------------------------------------|
----------------------------------|------------------------------------|
----------------------------------|------------------------------------|
----------------------------------|------------------------------------|


   W                   W                   W                 
--------------------|-------------------|-------------------|
--------------------|-------------------|-------------------|
--16----------------|--L----------------|--L----------------|
--------------------|-------------------|-------------------|
--------------------|-------------------|-------------------|
--------------------|-------------------|-------------------|
--------------------|-------------------|-------------------|


  W                   Q    Q    Q    Q       Q    Q    Q    Q     
-------------------|----------------------|----------------------|
-------------------|----------------------|----------------------|
--L----------------|----------------------|----------------------|
-------------------|----------------------|----------------------|
-------------------|--9--------------9----|------------9---------|
-------------------|-------7--------------|--7--------------7----|
-------------------|----------------------|----------------------|


   Q    Q    Q     Q       Q    Q     Q    Q       Q     Q    Q    Q     
------------------------|-----------------------|-----------------------|
------------------------|-----------------------|-----------------------|
------------------------|-----------------------|-----------------------|
------------------------|-----------------------|-----------------------|
--12--------------12----|------------12---------|--9---------------9----|
--------9---------------|--9---------------9----|-------10--------------|
------------------------|-----------------------|-----------------------|


   Q    Q    Q     Q        Q    Q    Q    Q        Q     Q    H         
------------------------|-----------------------|-----------------------|
------------------------|-----------------------|-----------------------|
------------------------|-----------------------|-----------------------|
------------------------|-----------------------|-----------------------|
-------------9----------|--10-------------------|-----------------------|
--10--------------10----|--------7---------7----|--12----10----9--------|
------------------------|-----------------------|-----------------------|


  Q    Q    Q    Q       Q    Q    Q    Q        Q    Q    Q     Q     
----------------------|----------------------|------------------------|
----------------------|----------------------|------------------------|
----------------------|----------------------|------------------------|
----------------------|----------------------|------------------------|
--9--------------9----|------------9---------|--12--------------12----|
-------7--------------|--7--------------7----|--------9---------------|
----------------------|----------------------|------------------------|


  Q    Q     Q    Q       Q     Q    Q    Q        Q    Q    Q     Q     
-----------------------|-----------------------|------------------------|
-----------------------|-----------------------|------------------------|
-----------------------|-----------------------|------------------------|
-----------------------|-----------------------|------------------------|
------------12---------|--9---------------9----|-------------9----------|
--9---------------9----|-------10--------------|--10--------------10----|
-----------------------|-----------------------|------------------------|


   Q    Q    Q    Q        Q     Q    H           Q    Q    Q    Q     
-----------------------|-----------------------|----------------------|
-----------------------|-----------------------|----------------------|
-----------------------|-----------------------|----------------------|
-----------------------|-----------------------|----------------------|
--10-------------------|-----------------------|--9--------------9----|
--------7---------7----|--12----10----9--------|-------7--------------|
-----------------------|-----------------------|----------------------|


  Q    Q    Q    Q        Q    Q    Q     Q       Q    Q     Q    Q     
----------------------|------------------------|-----------------------|
----------------------|------------------------|-----------------------|
----------------------|------------------------|-----------------------|
----------------------|------------------------|-----------------------|
------------9---------|--12--------------12----|------------12---------|
--7--------------7----|--------9---------------|--9---------------9----|
----------------------|------------------------|-----------------------|


  Q     Q    Q    Q        Q    Q    Q     Q        Q    Q    Q    Q     
-----------------------|------------------------|-----------------------|
-----------------------|------------------------|-----------------------|
-----------------------|------------------------|-----------------------|
-----------------------|------------------------|-----------------------|
--9---------------9----|-------------9----------|--10-------------------|
-------10--------------|--10--------------10----|--------7---------7----|
-----------------------|------------------------|-----------------------|


   Q     Q    H           Q    Q    Q    Q       Q    Q    Q    Q     
-----------------------|----------------------|----------------------|
-----------------------|----------------------|----------------------|
-----------------------|----------------------|----------------------|
-----------------------|----------------------|----------------------|
-----------------------|--9--------------9----|------------9---------|
--12----10----9--------|-------7--------------|--7--------------7----|
-----------------------|----------------------|----------------------|


   Q    Q    Q     Q       Q    Q     Q    Q       Q     Q    Q    Q     
------------------------|-----------------------|-----------------------|
------------------------|-----------------------|-----------------------|
------------------------|-----------------------|-----------------------|
------------------------|-----------------------|-----------------------|
--12--------------12----|------------12---------|--9---------------9----|
--------9---------------|--9---------------9----|-------10--------------|
------------------------|-----------------------|-----------------------|


   Q    Q    Q     Q        Q    Q    Q    Q       Q    Q    Q    Q     
------------------------|-----------------------|----------------------|
------------------------|-----------------------|----------------------|
------------------------|-----------------------|----------------------|
------------------------|-----------------------|----------------------|
-------------9----------|--10-------------------|--9-------------------|
--10--------------10----|--------7---------7----|-------7---------7----|
------------------------|-----------------------|----------------------|


   Q    Q    Q    Q        Q    Q    Q    Q       Q    Q    Q    Q     
-----------------------|-----------------------|----------------------|
-----------------------|-----------------------|----------------------|
-----------------------|-----------------------|----------------------|
-----------------------|-----------------------|----------------------|
--10-------------------|--12-------------------|--9--------------9----|
--------7---------7----|--------9---------7----|-------7--------------|
-----------------------|-----------------------|----------------------|


  Q    Q    Q    Q        Q    Q    Q     Q       Q    Q     Q    Q     
----------------------|------------------------|-----------------------|
----------------------|------------------------|-----------------------|
----------------------|------------------------|-----------------------|
----------------------|------------------------|-----------------------|
------------9---------|--12--------------12----|------------12---------|
--7--------------7----|--------9---------------|--9---------------9----|
----------------------|------------------------|-----------------------|


  Q     Q    Q    Q        Q    Q    Q     Q        Q    Q    Q    Q     
-----------------------|------------------------|-----------------------|
-----------------------|------------------------|-----------------------|
-----------------------|------------------------|-----------------------|
-----------------------|------------------------|-----------------------|
--9---------------9----|-------------9----------|--10-------------------|
-------10--------------|--10--------------10----|--------7---------7----|
-----------------------|------------------------|-----------------------|


   Q     Q    H           Q    Q    Q    Q       Q    Q    Q    Q     
-----------------------|----------------------|----------------------|
-----------------------|----------------------|----------------------|
-----------------------|----------------------|----------------------|
-----------------------|----------------------|----------------------|
-----------------------|--9--------------9----|------------9---------|
--12----10----9--------|-------7--------------|--7--------------7----|
-----------------------|----------------------|----------------------|


   Q    Q    Q     Q       Q    Q     Q    Q       Q     Q    Q    Q     
------------------------|-----------------------|-----------------------|
------------------------|-----------------------|-----------------------|
------------------------|-----------------------|-----------------------|
------------------------|-----------------------|-----------------------|
--12--------------12----|------------12---------|--9---------------9----|
--------9---------------|--9---------------9----|-------10--------------|
------------------------|-----------------------|-----------------------|


   Q    Q    Q     Q        Q    Q    Q    Q        Q     Q    H         
------------------------|-----------------------|-----------------------|
------------------------|-----------------------|-----------------------|
------------------------|-----------------------|-----------------------|
------------------------|-----------------------|-----------------------|
-------------9----------|--10-------------------|-----------------------|
--10--------------10----|--------7---------7----|--12----10----9--------|
------------------------|-----------------------|-----------------------|


  Q    Q    Q    Q       Q    Q    Q    Q        Q    Q    Q     Q     
----------------------|----------------------|------------------------|
----------------------|----------------------|------------------------|
----------------------|----------------------|------------------------|
----------------------|----------------------|------------------------|
--9--------------9----|------------9---------|--12--------------12----|
-------7--------------|--7--------------7----|--------9---------------|
----------------------|----------------------|------------------------|


  Q    Q     Q    Q       Q     Q    Q    Q        Q    Q    Q     Q     
-----------------------|-----------------------|------------------------|
-----------------------|-----------------------|------------------------|
-----------------------|-----------------------|------------------------|
-----------------------|-----------------------|------------------------|
------------12---------|--9---------------9----|-------------9----------|
--9---------------9----|-------10--------------|--10--------------10----|
-----------------------|-----------------------|------------------------|


   Q    Q    Q    Q        Q     Q    H           Q    Q    Q    Q     
-----------------------|-----------------------|----------------------|
-----------------------|-----------------------|----------------------|
-----------------------|-----------------------|----------------------|
-----------------------|-----------------------|----------------------|
--10-------------------|-----------------------|--9--------------9----|
--------7---------7----|--12----10----9--------|-------7--------------|
-----------------------|-----------------------|----------------------|


  Q    Q    Q    Q        Q    Q    Q     Q       Q    Q     Q    Q     
----------------------|------------------------|-----------------------|
----------------------|------------------------|-----------------------|
----------------------|------------------------|-----------------------|
----------------------|------------------------|-----------------------|
------------9---------|--12--------------12----|------------12---------|
--7--------------7----|--------9---------------|--9---------------9----|
----------------------|------------------------|-----------------------|


  Q     Q    Q    Q        Q    Q    Q     Q        Q    Q    Q    Q     
-----------------------|------------------------|-----------------------|
-----------------------|------------------------|-----------------------|
-----------------------|------------------------|-----------------------|
-----------------------|------------------------|-----------------------|
--9---------------9----|-------------9----------|--10-------------------|
-------10--------------|--10--------------10----|--------7---------7----|
-----------------------|------------------------|-----------------------|


   Q    Q    Q    Q       Q    Q    Q    Q        Q    Q    Q    Q     
-----------------------|----------------------|-----------------------|
-----------------------|----------------------|-----------------------|
-----------------------|----------------------|-----------------------|
-----------------------|----------------------|-----------------------|
--10-------------------|--9-------------------|--10-------------------|
--------7---------7----|-------7---------7----|--------7---------7----|
-----------------------|----------------------|-----------------------|


   Q    Q    Q    Q      
-----------------------||
-----------------------||
-----------------------||
-----------------------||
--12-------------------||
--------9---------7----||
-----------------------||



-------------------------------------------------------------------------------
			     Judas Immortal - Persuader
-------------------------------------------------------------------------------
Tabbed by: DavidovFarseer
Email: metalwarriorsprayer@gmail.com

Persuader's Website: www.persuader.nu

Tuning: A#-D#-G#-C#-F#-A#-D# (Standard 7 String Tuning tuned down 1/2 step)

Tempo: 220bpm
Time Sig: 4/4
  


Daniel - Rhy. Guitar


      W                   W                   W                 
D#||-------------------|-------------------|-------------------|
A#||-------------------|-------------------|-------------------|
F#||-------------------|-------------------|-------------------|
C#||-------------------|-------------------|-------------------
Добавлено: 16.07.2012
Другие материалы по этой песне:

Страница создана 08.03.2012
http://primanota.ru/persuader/judas-immortal-chords.htm
Привет, Гость.
Предлагаем пройти революционный курс по гитаре.
Подарок от PrimaNota.Ru, забирай!