PrimaNota.ru - самый крупный в мире бесплатный архив песенных текстов, аккордов, табулатур и нот


Person L - Holy Hell - таба, видео

Регистрация Запомнить меня
Войти через:  Facebook Google Twitter Vk Yandex Mail.ru

Person L - Holy Hell - таба, видео

Печатать
Просмотров: 146
www.myspace.com/personl

INTRO x2
       X3               then
e---------------------]-------------|
B---------------------]-------------|
G---------------------]-------------|
D-------5-----------5-]-------------|
A-7-5-7---7-5---5h7---]---------7---|
E-------------6-------]-3-0-3-6---6-|

VERSE
Guitar 1 (x2)
         X3             then
e--------------------]-------------|
B--------------------]-------------|
G--------------------]-------------|
D-------5----------5-]-------------|
A-7-5-7---7----5h7---]---------7---|
E------------6-------]-3-0-3-6---6-|

Guitar 2 (x2)
        Plays this                        then plays with G1
e---------------------------------------]-----------|
B---------------------------------------]-----------|
G----------12b/-------------------------]-----------|
D-----------------------12b/---------9b-]-----------|
A---------------------------------------]-----------|
E-12-10-12-----12-10-12-----12-10-12----]-3-0-3-666-|

CHORUS
e-------------------------------------------------------------|
B-------------------------------------------------------------|
G-------------------------------------------------------------|
D-------------------------------------------------------------|
A-333-222-333-222---------------------333-222---------333-222-|
E-----------------555-444-----555-444---------555-444---------|

Repeat Intro,Verse and Chorus

OUTRO
Guitar 1 repeats this
X3               then
e---------------------]-------------|
B---------------------]-------------|
G---------------------]-------------|
D-------5-----------5-]-------------|
A-7-5-7---7-5---5h7---]---------7---|
E-------------6-------]-3-0-3-6---6-|

Guitar 2 (x2)
e-----------|
B-----------|
G-----------|
D-----------|
A-----------|
E-6666-777--|

Both Guitars end on
e---
B---
G---
D---
A-7-
E---
Добавлено: 25.06.2012
Другие материалы по этой песне:
  • Аккорды и текст

Страница создана 25.06.2012
http://primanota.ru/person-l/holy-hell-chords.htm
Привет, Гость.
Предлагаем пройти революционный курс по гитаре.
Подарок от PrimaNota.Ru, забирай!